Majestade o Sabiá
Jair Rodrigues
Acordes

Subida por rosiebittar2905



Otras Versiones
Ver. 2 Ver. 3

Cambiar Cifrado
Americano Latino

Cambiar Tonalidad
-1 +1

Partir Pantalla Imprimir FAQ

+A
-A
Mudar para Português
LETRA CON ACORDES
Intro: G  D7  G  D7  G  D7

Solo Intro::

Parte 1

E|-----3----7-3-3--3-3/5-5-------10----10-7-7-5-5-3-3---|
B|-----------------5-5/7-7------------------------------|
G|-3/4---/7-7-4-4-----------9/11----11-11-7-7-5-5-4-4---|
D|------------------------------------------------------|
A|------------------------------------------------------|
E|------------------------------------------------------|

Parte 2

E|-3-3---7-3-3-----3----5-------10----10-7-7-5-5-3-3----|
B|------------------------------------------------------|
G|-4-4/7-7-4-4-3/4---/5-5--9/11----11-11-7-7-5-5-4-4----|
D|------------------------------------------------------|
A|------------------------------------------------------|
E|------------------------------------------------------|

Primeira Parte:

G
Meus pensamentos tomam formas eu viajo
Am
Vou pra onde Deus quiser
D7 Am
Um vídeo-tape que dentro de mim retrata
D7
Todo o meu inconsciente
G (passagem)
De maneira natural

Passagem:

G
E|-3----------------------------------------|
B|-3----------------------------------------|
G|-0----------------------------------------|
D|-0----------------------------------------|
A|-2---0-2----------------------------------|
E|-3-3--------------------------------------|

Refrão:

C
Ah...

Tô indo agora prum lugar todinho meu
G
Quero uma rede preguiçosa pra deitar

Em minha volta sinfonia de pardais
D7
Cantando para a majestade, o sabiá
G
A Majestade, o sabiá

Segunda Parte:


Tô indo agora tomar banho de cascata

Quero adentrar nas matas
Am
Aonde Oxossi é o Deus
D7 Am
Aqui eu vejo plantas lindas e selvagens
D7
Todas me dando passagem
G (passagem)
Perfumando o corpo meu

Refrão:

C
Ah...

Tô indo agora prum lugar todinho meu
G
Quero uma rede preguiçosa pra deitar

Em minha volta sinfonia de pardais
D7
Cantando para a majestade, o sabiá
G
A Majestade, o sabiá

Repete Intro: G D7 G D7 G D7

Terceira Parte:

G
Esta viagem dentro de mim foi tão linda

Vou voltar à realidade
Am
Pra este mundo de Deus
D7 Am
É que o meu eu, este tão desconhecido
D7
Jamais serei traído
G (passagem)
Pois este mundo sou eu

Refrão:

C
Ah...

Tô indo agora prum lugar todinho meu
G
Quero uma rede preguiçosa pra deitar

Em minha volta sinfonia de pardais
D7
Cantando para a majestade, o sabiá
G
A Majestade, o sabiá

C
Ah...

Tô indo agora prum lugar todinho meu
G
Quero uma rede preguiçosa pra deitar

Em minha volta sinfonia de pardais
D7
Cantando para a majestade, o sabiá
G
A Majestade, o sabiá

C
Ah...

Tô indo agora prum lugar todinho meu
G
Quero uma rede preguiçosa pra deitar

Em minha volta sinfonia de pardais
D7
Cantando para a majestade, o sabiá
G
A Majestade, o sabiá

ACORDES PARA GUITARRA

PIANO UKELELE
G
D7
Am
C


COMENTARIOS

Aún no hay comentarios,

¡escribe el primero!

Para hacer una pregunta o dejar un comentario sobre esta canción, debes estar LOGUEADO

Las canciones más tocadas de Jair Rodrigues

Toca una Canción al Azar de Jair Rodrigues
G
D7
Am
C

Nuestro servidor se demoró 0.07 segundos en generar esta página. Eso fue realmente muy rápido!