Here We Go Again
John Lennon
Acordes

Subida por DaniTaborda
Álbum: Menlove Ave. ( 1986)


Más Versiones
Ver. 2 Ver. 3 Ver. 4 Ver. 5

Cambiar Cifrado
Americano Latino

Cambiar Tonalidad
-1 +1

Partir Pantalla Imprimir FAQ

+A
-A
	  


hide this tabHide tabIntro:


E|--2-3-2-3-2-3-2--6-7-6-7-6-7-6-7----------------------6-7-6-7-6-7-6-7--|
B|-------------------------------------3-4-3-4-3-4-3-4-------------------|
G|-----------------------------------------------------------------------|
D|-----------------------------------------------------------------------|
A|-----------------------------------------------------------------------|
E|-----------------------------------------------------------------------|tab

F#m A
Here we go again
F#m A
Here we go again and again
Bm F#m
Wondering how it all began
D D....
Wondering will it ever end

Bm D
Round and round we go
Bm D
Where it's going nobody knows

Though I know we've been
Em B5+
This place before
G A
Someone keeps on moving the doooor

hide this tabHide tabTransição: A A6/E (2x)


E|-----0-2-0-|
B|---2-------| 2x
G|-2---------|



E E6 (2x)
E|-------------|
B|-----0-2-0---|
G|---1---------| 2x
D|-2-----------|
G|-----------2-|tab


E
Here we go again
E7 D A } 2x
Here we go again

F#m A
So I say hello again
F#m A
And nobody gives a damm
Bm F#m
And no one wants to hold your hand
D D...
Everyone is an also-ran

Bm D
Round and round we go
Bm D
Where it's going nobody knows

Though I know we've seen
Em B5+
This place before
G A
Someone keeps on moving the doooor

hide this tabHide tabTransição:


A A6/E (2x)
E|-----0-2-0----|
B|---2----------|
G|-2------------| 2x



E E6 (2x)
E|-------------|
B|-----0-2-0---|
G|---1---------|
D|-2-----------| 2x
G|-----------2-|
tab

E
Here we go again
E7 D A } 2x
Here we go again

E
Round and round we go
E7 D A
Round and round we go

E
Here we go again...

ACORDES PARA GUITARRA

PIANO UKELELE


COMENTARIOS

Aún no hay comentarios,

¡escribe el primero!

Escribe una pregunta, duda o comentario sobre esta canción, te responderemos a la brevedad.

Las más tocadas de John Lennon

Toca una Canción al Azar de John Lennon