Nocaute (Acordes)

Jorge & Mateus

Subida por rakel

Compartir


Cambiar Cifrado
Americano Latino

Cambiar Tonalidad
-1 +1
Imprimir FAQ
+A
-A

Texto

Desplazamiento

Transportador

Color de Fondo

Archivos

TONALIDAD, TAMAÑO, CIFRADO, SCROL.

Nos renovamos: Ahora puedes cambiar TODO haciendo clic en ICONO de la Guitarra () que aparece en la parte inferior de esta página.


LETRA CON ACORDES

[Intro] Am7  C  Am7  C

E|------------------------------------------|
B|--x--x--x--x------------------------------|
G|--x--x--x--x------------------------------|
D|--x--x--x--x------------------------------|
A|--x--x--x--x------------------------------|
E|------------------------------------------|

    Am7
E|------8--8-8---x-x------------------------|
B|------8--8-8---x-x------------------------|
G|------5--5-5---x-x------------------------|
D|------7--7-7---x-x------------------------|
A|--0-0-------------------------------------|
E|--------------------8--------------------|

       C                     H.N
E|------------------------------------------|
B|------------------------------------------|
G|---------0-------0h2--0----5--------------|
D|-------2-----0h2-----------5--------------|
A|-0h2-3---------------------5--------------|
E|------------------------------------------|

    Am7
E|------8--8-8---x-x------------------------|
B|------8--8-8---x-x------------------------|
G|------5--5-5---x-x------------------------|
D|------7--7-7---x-x------------------------|
A|--0-0-------------------------------------|
E|--------------------8--------------------|

       C
E|------------------------------------------|
B|------------------------------------------|
G|---------0-------0h2-0--2p0---------------|
D|-------2-----0h2------------2p0-----------|
A|-0h2-3------------------------------------|
E|------------------------------------------|

[Primeira Parte]

      Am7
Olha aí, o mundo girando
                   C
E a gente se esbarrando outra vez
         Am7
Olha aí,     o meu coração
                 C
Indo contra a razão sentimento
                 
[Segunda Parte]

           Dm
Não se desfez, recaí 
           F9
Quando te vi
                 G9
A paixão veio a tona
         Dm
Fui a nocaute, beijei a lona
       F9       G9
O meu corpo tremeu
   F9              G9
O tempo passou, a vida mudou
F9             G9
  Mas eu continuo seu

[Refrão]

             Dm
Ainda sou o mesmo
            F7M/C
Bobo apaixonado
               C
Se eu estou errado
                 G
Não quero nem saber
                 Dm
Eu só sei que a vida
            F7M/C
É mais colorida 
       C         G
Com você, com você, iê iê

Am7  C  Am7  C )

E|------------------------------------------|
B|--x--x--x--x------------------------------|
G|--x--x--x--x------------------------------|
D|--x--x--x--x------------------------------|
A|--x--x--x--x------------------------------|
E|------------------------------------------|

    Am7
E|------8--8-8---x-x------------------------|
B|------8--8-8---x-x------------------------|
G|------5--5-5---x-x------------------------|
D|------7--7-7---x-x------------------------|
A|--0-0-------------------------------------|
E|--------------------8--------------------|

       C                     H.N
E|------------------------------------------|
B|------------------------------------------|
G|---------0-------0h2--0----5--------------|
D|-------2-----0h2-----------5--------------|
A|-0h2-3---------------------5--------------|
E|------------------------------------------|

    Am7
E|------8--8-8---x-x------------------------|
B|------8--8-8---x-x------------------------|
G|------5--5-5---x-x------------------------|
D|------7--7-7---x-x------------------------|
A|--0-0-------------------------------------|
E|--------------------8--------------------|

       C
E|------------------------------------------|
B|------------------------------------------|
G|---------0-------0h2-0--2p0---------------|
D|-------2-----0h2------------2p0-----------|
A|-0h2-3------------------------------------|
E|------------------------------------------|

[Primeira Parte]

      Am7
Olha aí, o mundo girando
                   C
E a gente se esbarrando outra vez
         Am7
Olha aí,     o meu coração
                 C
Indo contra a razão sentimento
                 
[Segunda Parte]

           Dm
Não se desfez, recaí 
           F9
Quando te vi
                 G9
A paixão veio a tona
         Dm
Fui a nocaute, beijei a lona
       F9       G9
O meu corpo tremeu
   F9              G9
O tempo passou, a vida mudou
F9             G
  Mas eu continuo seu

[Refrão]

            Dm
Ainda sou o mesmo
            F7M/C
Bobo apaixonado
               C
Se eu estou errado
                 G
Não quero nem saber
                 Dm
Eu só sei que a vida
            F7M/C
É mais colorida 
       C         G
Com você, com você

           Dm
Ainda sou o mesmo
            F7M/C
Bobo apaixonado
               C
Se eu estou errado
                 G
Não quero nem saber
                 Dm
Eu só sei que a vida
            F7M/C
É mais colorida 
       C         G
Com você, com você

       Dm        F7M/C
Com você, com você
C  G  Dm        F7M/C
          Com você
     C         G           Am7
Com você, com você, com você

Video Clip de Nocaute


ACORDES PARA GUITARRA

PIANO UKELELE
Am7
C
Dm
F9
G9
Fmaj7/C
G


TOP 20: Las más tocadas de Jorge & Mateus


Acordes

Cerrar
Am7
C
Dm
F9
G9
Fmaj7/C
G

07.56

x

105