El Divorcio (Julio Jaramillo) Acordes



Más Versiones de esta Canción | Ver. 2 |

Cambiar Cifrado: |SOL > G| - |G > SOL|

BAJAR UN TONO BAJAR UN SEMI-TONO SUBIR UN SEMI-TONO SUBIR UN TONO PARTIR PANTALLA EN VERTICAL PARTIR PANTALLA EN VERTICAL ¡Ayuda!
-A
+A
Tenia varias peticiones asi que se las mando



INTRO: Bb Bbm F Gm C7 F F7

e-13--13-13-13-13-13---10---------10--13-12-13-12-10-----
B-----15-15-15-15-15---11--11-13--11--15-13-15-13-11-----
G--------------------------12-14---------------------13--
D----------------------------------------------------14--
A--------------------------------------------------------
E--------------------------------------------------------


e--------------12-10-12-10--------------------8-10-12-13-
B-11-10-11-13--13-11-13-11-13-11--10-8-10-11-10-11-13-15-
G-12-10-12-14--------------14-12--10-9-10-12-------------
D--------------------------------------------------------
A--------------------------------------------------------
E--------------------------------------------------------


e--8-13-12-10----------------------------
B-10-15-13-11-13-11-10---13-12-13-12-13--
G-------------14-12-10---14-13-14-13-14--
D----------------------------------------
A----------------------------------------
E----------------------------------------


F Gm
Lo que tu quieres es divorciarte de mi cariño
F
te vas con otro por que pretendes vivir mejor
Gm Am G#m Gm
porque soy pobre te convencieron que me dejaras
F C7
tendrás con otro lo que tu quieras menos amor


F Gm
en la capilla juraste amarme toda la vida
F
el señor cura representando la ley de Dios
Gm Am G#m Gm
dio la sentencia de estar unidos toda la vida
F Gm C7 F F7
y ahora te atreves a proponerme separación


Bb Bbm F
te puedes ir a donde quieras con quien tu quieras
Gm C7 F F7
te puedes ir pero el divorcio por ser pecado no te lo doy
Bb Bbm F
te puedes ir a donde quieras con quien tu quieras
Gm C7 F F7
te puedes ir pero el divorcio por ser pecado no te lo doy.


PUENTE: Bb Bbm F Gm C7 F F7

e-13--13-13-13-13-13---10---------10--13-12-13-12-10-----
B-----15-15-15-15-15---11--11-13--11--15-13-15-13-11-----
G--------------------------12-14---------------------13--
D----------------------------------------------------14--
A--------------------------------------------------------
E--------------------------------------------------------


e--------------12-10-12-10--------------------8-10-12-13-
B-11-10-11-13--13-11-13-11-13-11--10-8-10-11-10-11-13-15-
G-12-10-12-14--------------14-12--10-9-10-12-------------
D--------------------------------------------------------
A--------------------------------------------------------
E--------------------------------------------------------


e--8-13-12-10----------------------------
B-10-15-13-11-13-11-10---13-12-13-12-13--
G-------------14-12-10---14-13-14-13-14--
D----------------------------------------
A----------------------------------------
E----------------------------------------


F Gm
en la capilla juraste amarme toda la vida
F
el señor cura representando la ley de Dios
Gm Am G#m Gm
dio la sentencia de estar unidos toda la vida
F Gm C7 F F7
y ahora te atreves a proponerme separación


Bb Bbm F
te puedes ir a donde quieras con quien tu quieras
Gm C7 F F7
te puedes ir pero el divorcio por ser pecado no te lo doy
Bb Bbm F
te puedes ir a donde quieras con quien tu quieras
Gm C7 F F7
te puedes ir pero el divorcio por ser pecado no te lo doy.



¡Siguiente!

Toca una Canción al Azar de Julio Jaramillo
Bb
Bbm
F
Gm
C7
F7
Am
G#m




Aún no hay comentarios, ¡escribe el primero!

Escribe un comentario o pregunta sobre esta canción:




Más canciones de Julio Jaramillo

Esposa
Somos diferentes
Reminicencias
Oh Pintor
El Mendigo
Amor sin esperanza
Devuelveme el corazon
Sombras
Mi primer amor
Senderito de amor
Cuando ya no me quieras
5 Centavitos
Odiame
Y
Mis flores negras
Hojas de calendario
Compañera Mía
Ayer y hoy
Arrepentida
Toda Una Vida

Siguiente


ABRIR ACORDES
Bb
Bbm
F
Gm
C7
F7
Am
G#m
[X]CERRAR ACORDES

Nuestro servidor se demoró 0.06 segundos en generar esta página. Eso fue realmente muy rápido!