Blow (Acordes)

Kesha

Subida por jesussimba

Compartir


Imprimir FAQ
+A
-A

Texto

Desplazamiento

Transportador

Color de Fondo

Archivos

-A
+A
G|-----------4-------------|
D|-------/4-------4-------|
A|--2-------------------2--|
E|-------------------------|

Ponte 5x: 
G|--4--4--4--4--4--4--0-0-0-0-|----------------------------|
D|----------------------------|--2--2--2--2--2--2--0-0-0-0-|
A|----------------------------|----------------------------|
E|----------------------------|----------------------------|
 
G|----------------------------|----------------------------|
D|----------------------------|----------------------------|
A|--2--2--2--2--2--2--2-2-2-2-|--2--2--2--2--2--2--2-2-2-2-|
E|----------------------------|----------------------------|

Video Clip de Blow


ACORDES PARA GUITARRA

PIANO UKELELE


TOP 20: Las más tocadas de Kesha


Toca una Canción al Azar de Kesha

Acordes

Cerrar

10.53

x

60