Dime Porque (Kumbia Kings) Acordes



Cambiar Cifrado: |SOL > G| - |G > SOL|

BAJAR UN TONO BAJAR UN SEMI-TONO SUBIR UN SEMI-TONO SUBIR UN TONO PARTIR PANTALLA EN VERTICAL PARTIR PANTALLA EN VERTICAL ¡Ayuda!
-A
+A
OLAHS banda otra vez yo jejeje ahi les paso sto  que m
pidieron es una rola muy chida, sta completa como todash
las que mando y lo mas importante es que estan limìpias
osea sin error, se la dedico a KARINA TAHIMY, como todash
lash de los kk, "dime xq sigo enamorado, dime porque aun
no t he olvidado" espero y les lata cualquier duda
mandenla a ed_che19@hotmail.com,www.bad-angel@hotmail.com
o a kar_itz@yahoo.com

"si la vida te da la espalda, agarrale el tracero"
"oralesh que"

C F
Dime porque las noches son tan largas
Dm G
La miel me sabe amarga dime porque

INTRO:

D-----------------------------------------------------
G-----------------------------------------------------
B-13----------13-------------13-13-10-13--------------
e----10-12-12----10-13-12-10-------------10-13-12-10--

D-----------------------------------------------------
G-----------------------------------------------------
B-13-13----13----------------------13----------13-----
e-------10----10-12-12-12/13-12-10----10-12-12----10--

D-----------------------------------------------------
G-----------------------------------------------------
B----------13-13----13-------------------------------
e-13-12-10-------10----10-12-12-12/13-12-10-----------



C G F
Yo pensé que iba a ser muy fácil
G
Olvidar tu cara
C G F
Y poder seguir hacia adelante
G
Como si nada
C G F
Pero se me ha hecho muy difícil
G
Superar tu amor
C G F
Ya no se que hacer para desenredar
G
mi corazón



coro


Dm G
Dime porque sigo atormentado (dime porque)
F G
Dime porque aun no t he olvidado
C F
Dime porque las noches son tan largas
Dm G
Las miel me sabe amarga dime porque
C F
Dime porque se pierden los colores
Dm G
Y el perfume de las flores dime porque dime porque

C G F G
Yo voy a reconstruir el mundo con otro cariño
C G F G
Yo quiero volver a ser feliz y abrir nuevos caminos
C G F G
Solo quiero ya dejar atrás el daño que me hiciste
C G F G
Y curar mi corazón de las heridas que le diste



CORO X 2



¡Siguiente!

Toca una Canción al Azar de Kumbia Kings

Inicia Sesión para guardar
esta versión como favorita

DESCARGAS:
Descargar
(Dime Porque .pdf)


Aún no hay comentarios, ¡escribe el primero!

Escribe un comentario o pregunta sobre esta canción:






Más canciones de Kumbia Kings

Llévame al cielo
Baila esta kumbia
No tengo dinero
Boom Boom
Desde que no estas aquí
Na na na
Ella sabe
Sabes a chocolate
Me enamoré
Tic-Tac del reloj
Fuiste Mala
Amores como el tuyo
Shhh
Contigo
Duele
Mi Gente
Cada vez
Reggae Kumbia
Te quiero a tí
Fuego

Siguiente


ABRIR ACORDES

Nuestro servidor se demoró 0.72 segundos en generar esta página. No esta nada mal!