Compartir


Cambiar Cifrado
Americano Latino

Cambiar Tonalidad
-1 +1
Imprimir FAQ
+A
-A

Texto

Desplazamiento

Transportador

Color de Fondo

Archivos

TONALIDAD, TAMAÑO, CIFRADO, SCROL.

Nos renovamos: Ahora puedes cambiar TODO haciendo clic en ICONO de la Guitarra () que aparece en la parte inferior de esta página.


LETRA CON ACORDES

      F             A
Aburrís cuando me decís
               Dm
Que sea más paciente
               Bb
Que controle mi mente.

F                    A
Mentís, cada vez que me repetís
                     Dm
Que en tu alma nunca suenan alarmas
                     Bb
Y que te tomas con calma.

F                     A
Insistís, con que tengo que empezar a pensar
                      Dm
Del lado que me voy a parar
                      C
Y que me llame a la reflexión

Bb            C
Meditando, meditando,
              Dm
Me di cuenta, me di vuelta
              G
Me aleje de vos
Gm            Bb           F   4/-------------------
   Soñando nunca es tarde      5/---3--3-------3--3--
                               6/--1--1--1-1-1--1--1-


Bb              C
Medio actuando, medio tango
                Dm
Medio a cuestas, hago apuestas
              G
Y me voy de vos
Gm               Bb
  En los sueños nunca es tarde.

         F                D#           C

1/-----------------------------------------
2/-----------------------------------------
3/--10-10-10-10-10-10---7-8-8-8-8-8---8-5--
4/-----------------------------------------
5/--8--8--8--8--8--8----5-6-6-6-6-6---6-3--
6/-----------------------------------------

         F                 D#       C

1/-----------------------------------------
2/-----------------------------------------
3/-10-10-10-10-10-10---7-8-8-8--8---5------
4/-----------------------------------------
5/-8--8--8--8--8--8----5-6-6-6--6---3------
6/-----------------------------------------


(Repite Acordes)
Corregís cada vez que intento salir
El rumbo de mi viaje deseado
Decí que soy un descontrolado

Herís, y te burlas de la cicatriz
Odias que se un tipo volado
Te gustaría verme forrado

Por eso insistís,
Con que tengo que empezar a pensar
Del lado que me voy a parar
Y que me llame a la reflexión

Bb            C
Meditando, meditando,
              Dm
Me di cuenta, me di vuelta
              G
Me aleje de vos
Gm            Bb           F
   Soñando nunca es tarde

Bb              C
Medio actuando, medio tango
                Dm
Medio a cuestas, hago apuestas
              G
Y me voy de vos
Gm               Bb
  En los sueños nunca es tarde.

F  D#  C
SOLO:
        F          A                 Dm               Bb

1/-----------------------------------------------------------------
2/-----------------------------------------------------------------
3/-----------------------------------------------------------------
4/----7h8p7---7h8p7---7h8p7---7h8p7---7h8p7---7h8p7----7-8-/10-8-7-
5/--8-------8-------7-------7-------5-------5----------------------
6/--------------------------------------------------6-6------------


     F          A               Dm            C

1/-----------------------------------------------------------------
2/-----------------------------------------------------------------
3/-------6-------------5--------------------5-6-/8~-6~-------------
4/---------5-------------5-----------7-/9-5------------------------
5/-7h8p7-----8-7-7h8p7-----8-7-7h8p7-------------------------------
6/-----------------------------------------------------------------


Video Clip de Meditando


ACORDES PARA GUITARRA

PIANO UKELELE
F
A
Dm
Bb
C
G
Gm
D#


TOP 20: Las más tocadas de La Franela


Toca una Canción al Azar de La Franela

Acordes

Cerrar
F
A
Dm
Bb
C
G
Gm
D#

07.42


95