Pasarás
La Franela
Acordes

Subida por Carolina88
Álbum: Después de ver ( 2009)


Más Versiones
Ver. 2 Ver. 3 Ver. 4 Ver. 5

Cambiar Cifrado
Americano Latino

Cambiar Tonalidad
-1 +1

Partir Pantalla Imprimir FAQ

+A
-A


Ver solo la LETRA
-Intro X2:

Am G C F Am G F
e|--------------------------------------------------
B|--------------------------------------------------
G|------5--------------9/10-9-7-5---5---------------
D|--5/7---7--9/10-9---------------7---7--9/10-9-10--
A|------------------10--------------------------8---
E|--------------------------------------------------

Am G C F Am G F
Pasarás sin darte cuenta que no eres tan perfecta.
Am G C F Am G F
Mucha veces fuiste muchas flores en la puerta.

G F#5 Em G F#5 Em
Decime dónde,
G F#5 Em
Decime dónde
Intro X1
llegarás hasta mí.

Am G C F Am G F
Esos días eran del soldado sin bandera.
Am G C F Am G F
nunca nadie dice la primera es la que quema.

G F#5 Em G F#5 Em
Decime dónde,
G F#5 Em
Decime dónde
A A
llegarás hasta mí.


-Acá hace un arpegio con triadas.

F Dm Am Am*
e|-5---5---5--|-5---5---5--|-5---5---5--|-8---7--3--
B|--6---6---6-|--6---6---6-|--5---5---5-|--5---5--5-
G|---5---5----|---7---7----|---5---5----|---5---5---

-Am*--]Se hace una pequeña variación con el dedo meñique
como muestra la tablatura.


F Dm Am Am*
Adormeciendo el alma
F Dm Am Am*
te aplasta la verdad.
F Dm Am Am*
Tan solo con tu alma
F Dm Am Am*
te alcanza la verdad.

G F#5 Em G F#5 Em
Decime dónde,
G F#5 Em |B/A : X0444X
Decime dónde |C/A : X0555X
A B/A C/A D/A |D/A : X0777X
llegarás hasta mí.


-En esta parte, no necesariamente se hace el arpegio.
Solo lo hace para el Am*

F Dm Am Am*
Adormeciendo el alma
F Dm Am Am*
te aplasta la verdad.
F Dm Am Am*
Tan solo con tu alma
F Dm Intro X1
te alcanza la verdad.


ACORDES PARA GUITARRA

PIANO UKELELE
Am
G
C
F
F#5
Em
A
Dm
Am


COMENTARIOS

Aún no hay comentarios,

¡escribe el primero!

Escribe una pregunta, duda o comentario sobre esta canción, te responderemos a la brevedad.

Las más tocadas de La Franela

Toca una Canción al Azar de La Franela
Am
G
C
F
F#5
Em
A
Dm
Am