El último vals
La Oreja de Van Gogh
Acordes

Subida por Upsbuddie



Más Versiones de esta Canción | Ver. 2 | Ver. 3 | Ver. 4 | Ver. 5 | Ver. 6 |

Cambiar Cifrado
Americano Latino

Cambiar Tonalidad
-1 +1

Partir Pantalla Imprimir FAQ

Ver solo la LETRA

+A
-A

LETRA Y ACORDES

Estaba viendo las transcripciones anteriores y no me convencen del todo...
Aquí está mi aportación

Pueden tocarla así como la escribo ´pelona´
O mejor facilitarse la vida colocando un capo en primer traste..
Si colocan el capo, bajen medio tono a los acordes y listo.
Lo bueno es que ya se puede hacer facilmente en LaCuerda (:





(Intro)

Gm F Cm Gm
e|--/6---6---6---6-|-5-----5---5---5-|-8-----8---8---8-|-6---5-----------|
B|-----8---8---8---|-----6---6---6---|-----8---8---8---|---------8-------|
G|-----------------|-----------------|-----------------|-----------------|
D|-----------------|-----------------|-----------------|-----------------|
A|-----------------|-----------------|-----------------|-----------------|
E|-----------------|-----------------|-----------------|-----------------|

Gm F Cm Gm
e|--/6---6---6---6-|-5-----5---5---5-|-8---8---8-10-11-|-10--6-----------|
B|-----8---8---8---|-----6---6---6---|----8---8--------|---------8-------|
G|-----------------|-----------------|-----------------|-----------------|
D|-----------------|-----------------|-----------------|-----------------|
A|-----------------|-----------------|-----------------|-----------------|
E|-----------------|-----------------|-----------------|-----------------|

(Versos)
Gm D# F A# - F
Como casi siempre, cuando algo se muere
Gm Dm G# F
nace nostalgia buscando un corazón.
Gm D# F A# - F
Pero el mío es raro y aunque esté desordenado
Gm Dm F
es impermeable al dolor.

(Pre-coro)
D# A#
La felicidad es un maquillaje
F D7 (D5-C5-A#5-A5)
de sonrisa amable desde que no estás.

(Coro)
Gm A#
Siempre serás
D# Gm
bienvenido a este lugar,
D# A#
a mi lista de obsesiones
D7 Gm-F
que no vas a olvidar.
D# A# D# F
Como recordarte, sin mirar atrás
D# F
Yo nunca olvidaré el último vals

(Intro) Gm F Cm Gm 2x

(verso)
Gm D# F A# - F
Cuando todo acabe y el silencio hable
Gm Dm G# F
sólo tus pupilas sabrán que fue verdad.
Gm D# F A# - F
Y entre los cristales pedacitos de esta tarde,
Gm Dm F
donde comenzamos a soñar.

(pre-coro)
D# A#
La felicidad es un maquillaje
F D7 (D5-C5-A#5-A5)
de sonrisa amable desde que no estás.

(Coro)
Gm A#
Siempre serás
D# Gm
bienvenido a este lugar,
D# A#
a mi lista de obsesiones
D7 Gm-F
que no vas a olvidar.
D# A# D# F
Como recordarte, sin mirar atrás
D# F
Yo nunca olvidaré el último vals


(Outro)
Gm A#
Siempre serás
D# Gm
bienvenido a este lugar,
D# A#
a mi lista de obsesiones
D7 Gm-F
que no vas a olvidar.
D# A# Dm Gm
Como recordarte, sin mirar atrás
D# F F# G# A#
Yo nunca olvidaré el último vals







Gracias!
GLima

Recuerda que #AcordesWeb.com se mantiene en línea gracias al aporte de nuestros anunciantes.

Toca una Canción al Azar de La Oreja de Van Gogh



ACORDES

PIANO UKELELE
Gm
F
Cm
D#
A#
Dm
G#
D7
D5
C5
A#5
A5
F#



COMENTARIOS

Aún no hay comentarios,

¡escribe el primero!

Escribe un comentario o pregunta sobre esta canción




Más canciones de La Oreja de Van Gogh

  • La Playa
  • Soñaré
  • Déjate Llevar
  • Mi vida sin tí
  • Viejo cuento
  • Alguna de mis noches
  • Historia de amor
  • que puedo pedir
  • Cuantos cuentos cuento
  • Despacio
  • Vestido Azul
  • La niña que llora en tus fiestas
  • Tu pelo
  • La chica del gorro azul
  • Pienso en tí
  • 11 de marzo
  • Tic Tac
  • Mientras quede por decir una palabra
  • Cuéntame al Oido
  • Día Cero
  • Siguiente

    Gm
    F
    Cm
    D#
    A#
    Dm
    G#
    D7
    D5
    C5
    A#5
    A5
    F#

    Nuestro servidor se demoró 0.3 segundos en generar esta página. Que velocidad!