Music To My Eyes (Acordes)

Lady Gaga

Subida por katherine

Compartir


Cambiar Cifrado
Americano Latino

Cambiar Tonalidad
-1 +1
Imprimir FAQ
+A
-A

Texto

Desplazamiento

Transportador

Color de Fondo

Archivos

TONALIDAD, TAMAÑO, CIFRADO, SCROL.

Nos renovamos: Ahora puedes cambiar TODO haciendo clic en ICONO de la Guitarra () que aparece en la parte inferior de esta página.


LETRA CON ACORDES

[Intro]

   D          D          D6      D7       G        Em7          D

E|---------------------------------------------3----------------2|
B|------3----------3--------3-------3-----------3-----0p3-------3|
G|-2------2---3-----3----4-------5-----5------------------------2|
D|--------------------------------------------------------2-----0|
A|------------------------------------------2--------------2-----|
E|----------------------------------------3---------0------------|


[Primeira parte]

                   D
You're music to my eyes
                     Em          F#m
I had to listen just to find you
           Em                       A
I like for you to let me sing along
                      D      A
Give you a rhythm you feel

                         D
I wanna learn your every line
                      Em        F#m
I wanna fill your empty spaces
       Fm Em                                A
I want to play the part to reach your heart
                         D      A
Sing you a song that you feel


[Pré-Refrão]

D                      A/C#
Love let your music be mine
                  G
Sing while I harmonize
                  Em
Let your melodies fly in my direction
D                   A/C#
Take me to your paradise
             G
On a musical ride
                      Em            A
I'm in love with your music baby
                   D
You're music to my eyes

Music To My Eyes


[Refrão]

E|-2-------------------------------------------3----------------2|
B|-3----3----------3--------3-------3-----------3-----0p3-------3|
G|-2------2---3-----3----4-------5-----5------------------------2|
D|-0------------------------------------------------------2-----0|
A|------------------------------------------2--------------2-----|
E|----------------------------------------3---------0------------|


[Segunda parte]

                    D
Your voice is quite a view
                       Em          F#m
I heard a song and then I saw you
              Em                            A
I learned the lyrics and knew you were mine
                       D      A
Dance the horizon with you

                      D
I wanna sing you a sunrise
                       Em             F#m
And be the dawn I know will move you
         Fm Em                            A
I'd like to be the strings on your guitar
                           D       A
Touch me and play what you feel


[Pré-Refrão]

D                      A/C#
Love let your music be mine
                  G
Sing while I harmonize
                  Em
Let your melodies fly in my direction
D                   A/C#
Take me to your paradise
             G
On a musical ride
                      Em         A
I'm in love with your music baby
                   D
You're music to my eyes


[Refrão]

E|-2-------------------------------------------3----------------2|
B|-3----3----------3--------3-------3-----------3-----0p3-------3|
G|-2------2---3-----3----4-------5-----5------------------------2|
D|-0------------------------------------------------------2-----0|
A|------------------------------------------2--------------2-----|
E|----------------------------------------3---------0------------|

Video Clip de Music To My Eyes


ACORDES PARA GUITARRA

PIANO UKELELE
D
D6
D7
G
Em7
Em
F#m
A
Fm
A/C#


TOP 20: Las más tocadas de Lady Gaga


Toca una Canción al Azar de Lady Gaga

Acordes

Cerrar
D
D6
D7
G
Em7
Em
F#m
A
Fm
A/C#

10.02

x

129