Pain Lies on the Riverside (Acordes)

Live

disco Álbum: Mental Jewelry (1991)
Subida por lucio


Imprimir FAQ
+A
-A

Texto

Desplazamiento

Transportador

Color de Fondo

Herramientas

TAMAÑO
TONALIDAD
+A
subir tono+ (F4)
-A
bajar tono- (F2)
Versão 1
--------

1/2 step downtuned

Structure:  Fall-In (Intro to Intro)
             Intro 
              Verse 
               Prechorus 
                Chorus (same as verse) 
                 Bridge 
              Verse 
               Prechorus 
                Chorus 
                 Interlude
               Prechorus 
                Chorus 
                 Extro
                        
                                   
                 _______________________________
                <<<<<<<<<<<--Fall-In-->>>>>>>>>>>
                 ~~~~~~~~~~~~~~~~~~~~~~~~~~~~~~~

drums+ B--9h10--------------------|
       a-------9h10---------------|
       s------------9h10p9--------|
       s-------------------7-----|


                
                 _____________________________
                <<<<<<<<<<<--Intro-->>>>>>>>>>>
                 ~~~~~~~~~~~~~~~~~~~~~~~~~~~~~

**Play the following twice:


R: Am                      Am          Dm                      Dm

G------------------------|-----------|-----------------------|-----------|
u------------------------|-----------|-----------------------|-----------|
i------------------------|-----------|-5h7-------7h8p7---5---|-7---------|
t--5h7-------7h8p7---5---|-7---------|-----------------------|-----------|
a------------------------|-----------|-----------------------|-----------|
r------------------------|-----------|-----------------------|-----------|
   |   |    |    |         | |  |  |   |   |    |    |         |  |  | |
B------------------------|-----------|-----7-7-5-5-5-----5h7-|-----------|
a------7-7-5-5-5-----5h7-|-----------|---------------5h7-----|----rpt----|
s----------------5h7-----|----rpt----|-5-5-------------------|-----------|
s--5-5-------------------|-----------|-----------------------|-----------|


                
                 _____________________________
                <<<<<<<<<<<--Verse-->>>>>>>>>>>
                 ~~~~~~~~~~~~~~~~~~~~~~~~~~~~~

**Play this 4 times per verse:

This is the same as the intro, but minus the lead guitar.

R: Am                      Am           Dm                      Dm        
   |   |    |    |         |  |  |  |   |   |    |    |         |  |  |  | 
B------------------------|------------|-----7-7-5-5-5-----5h7-|------------|
a------7-7-5-5-5-----5h7-|------------|---------------5h7-----|----rpt-----|
s----------------5h7-----|----rpt-----|-5-5-------------------|------------|
s--5-5-------------------|------------|-----------------------|------------|


                
                 _________________________________
                <<<<<<<<<<<--Prechorus-->>>>>>>>>>>
                 ~~~~~~~~~~~~~~~~~~~~~~~~~~~~~~~~~

**Play this just once per prechorus:


R:  F                   G                   Am
                                           bad-ass struming these two
G--------------------|--------------------|-12------12--12-|-12-------------|
u--10-------10-------|-12--------12-------|-13------12--13-|-13-------------|
i--10-------10-------|-12--------12-------|-14------14--14-|-14-------------|
t--10----10----------|-12-----12----------|-14------14--14-|-14-------------|
a---8--8-------------|-10--10-------------|-12------12--12-|-12-------------|
r--------------------|--------------------|----------------|----------------|
    |     |    |  |     |      |    |  |     |   |   |   |    |   |   |   |
B--------------------|--------------------|----------------|----------------|
a--------------------|--------------------|----------------|----------------|
s--------------------|--------------------|----------------|----------------|
s---1----------------|--3-----------------|--5-------------|--5-------------|
 


G--------------------|--------------------|----------------|----------------|
u--10-------10-------|-12--------12-------|--9-------------|----------------|
i--10-------10-------|-12--------12-------|--9---crescendo-|while-strumming-|
t--10----10----------|-12-----12----------|--9-------------|----------------|
a---8--8-------------|-10--10-------------|--7-------------|----------------|
r--------------------|--------------------|----------------|----------------|
    |     |    |  |     |      |    |  |     |   |   |   |   |   |   |   |
B--------------------|--------------------|----------------|----------------|
a--------------------|--------------------|----------------|----------------|
s--------------------|--------------------|----------------|-------------7-|
s---1----------------|--3-----------------|--0-------0-0-0-|-0-0-0-0-0-0----|


                
                 ______________________________
                <<<<<<<<<<<--Chorus-->>>>>>>>>>>
                 ~~~~~~~~~~~~~~~~~~~~~~~~~~~~~~

**Exactly like Verse except for the guitar changes a bit:

R: Am                      Am          Dm     Dmsus  Dm

G--5---------------------|-----------|--5-------5----5-------|-----------|
u--5---------strums============------|--6-------5----6----Listen-close---|
i--5---------------------|-----------|--7-------7----7----to-hear-these--|
t--7---------------------|-----------|--7-------7----7----two-chords-----|
a--7---------------------|-----------|--5-------5----5----traded-off!----|
r--5---------------------|-----------|-----------------------|-----------|

Play the above 3 times, then play the following 3 times:

R: E                 F       G
   |   |   |   |     |   |   |   |
B------------------|-----------------|
a------2-------2---|-----3-------5---|
s------------------|-----------------|
s--0-0-----0-0-----|-1-1---1-3-3---3-|

                
                 ______________________________
                <<<<<<<<<<<--Bridge-->>>>>>>>>>>
                 ~~~~~~~~~~~~~~~~~~~~~~~~~~~~~~

R: Am(hold)
   |    |    |    |
B---------------------|
a---------------------|
s---------------------|
s--5=================-|

                 _________________________________
                <<<<<<<<<<<--Interlude-->>>>>>>>>>>
                 ~~~~~~~~~~~~~~~~~~~~~~~~~~~~~~~~~
Play Intro riff twice. (The bass part changes to some neat
        slap-pop thingy I can't figure out. Sorry!)


                 _____________________________
                <<<<<<<<<<<--Extro-->>>>>>>>>>>
                 ~~~~~~~~~~~~~~~~~~~~~~~~~~~~~
Same as interlude (intro w/ slap-pop bass), but 5 repeats, then play

R: Am(hold)
   |    |    |    |
B--------------------||
a--------------------||        The End!!!
s--------------------||
s--5================-||




                        Transcribed by Michael Gunter 


Versão 2
---------
 Live - Pain Lies on the Riverside
------------------------------------------

Am                  Dm
 I have never taken life.
Am                       Dm
 Yet I have often paid the price
Am                               Dm
 And you, you are a victim of this age
AM
 And the guilt that hangs around your neck
Dm 
 Has got me locked up in a cage
              F        G             Am
 You've to to learn to live until no end
               F             G
 But first you must learn to swim
          E     .Stop.
 All over again
 
 Because...

 

Am                Dm
 Pain lies on the riverside
Am                   Dm
 And pain will never say goodbye
Am                Dm 
 Pain lies on the riverside
             E                    F(2 Beats) G(4 Beats)
 So put your feet in the water now 
          E                    F(2 Beats) G(4 Beats)
 Put your head in the water now 
          Am
 Put your soul in the water
     F             G         E  .Stop. 
 And join me for a swim tonight


Am                      Dm
 I have forever, always tried
          Am                       Dm
 To stay clean and constantly baptized
      Am                               Dm
 I am aware that the river's banks are dry
        Am
 And to wait for a flood,
       Dm
 Is to wait for life
            F        G                 Am
 I've got to learn to live until no end
             F             G       
 But first I must learn to swim all
          E .Stop. 
 Over again, 
 Because...
 
 Am               Dm
 Pain lies on the riverside... [Repeat Chorus]. End.


By Pedro - (20_Detonar)

HERRAMIENTAS ACORDESWEB:


LETRA DE LA CANCIÓN:

Ver la letra sola (sin acordes)

OTRAS VERSIONES DE LA MISMA CANCIÓN:

Ver. 2 Ver. 3

DESCARGAR PDF / IMPRIMIR CANCIÓN



ACORDES PARA



TOP 20: Las más tocadas de Live