Cruzando el paraiso
Loquillo
Acordes

Subida por martha


Más Versiones
Ver. 2 Ver. 3 Ver. 4

Cambiar Cifrado
Americano Latino

Cambiar Tonalidad
-1 +1

Partir Pantalla Imprimir FAQ

+A
-A
____ acordes ____________
| |
| A: 002220 |
| D: 000232 |
| Bm: 224432 |
| E: 022100 |
| F#m: 244222 |
| C#: 446664 |
|_______________________|


[intro]:
A D
E-||-7h9-9-9-9-7---7-7----------|-7h9-9-9-9-7---7-7----------|
B-||--------------------10-10---|--------------------10-10---|
G-||----------------------------|----------------------------|
D-||----------------------------|----------------------------|
A-||----------------------------|----------------------------|
E-||----------------------------|----------------------------|

Bm E
E-||-7h9-9-9-9-7---7-7----------|-7h9-9-9-9-7--12-9--7----7----|
B-||--------------------10-10---|----------------------10---10-|
G-||----------------------------|------------------------------|
D-||----------------------------|------------------------------|
A-||----------------------------|------------------------------|
E-||----------------------------|------------------------------|


A D
E-||-7h9-9-9-9-7---7-7----------|-7h9-9-9-9-7---7-7----------|
B-||--------------------10-10---|--------------------10-10---|
G-||----------------------------|----------------------------|
D-||----------------------------|----------------------------|
A-||----------------------------|----------------------------|
E-||----------------------------|----------------------------|

Bm E
E-||-7h9-9-9-9-7---7-7----------|-7h9-9-9-9-7----------------|
B-||--------------------10-10---|----------------------------|
G-||----------------------------|---------------9------------|
D-||----------------------------|----------------------------|
A-||----------------------------|----------------------------|
E-||----------------------------|----------------------------|


A
Es tan fácil dar
D
sin pensar en uno mismo
Bm
vayas a dónde vayas
E
encontrarás espejismos

A
Somos tan iguales
D
y a la vista tan distintos
Bm
yo bajando a los infiernos
E
y tú cruzando el paraíso



D E A
Para ti la vida que te lleva,
D E F#m
para mí la vida que me quema.
F#m E D E
Tenías tanto que aprender
F#m D
y yo tanto por demostrar,
Bm D E A
por un instante, la eternidad


[repetir intro (parte 2)]


A
Nada permanece,
D
todo se desvanece
Bm
sé que no puedo quejarme,
E
trataré de no engañarme

A
Siempre es cuestión de tiempo
D
llegar al precipicio
Bm
yo bajando a los infiernos
E
y tú cruzando el paraíso


D E A
Para ti la vida que te lleva,
D E F#m
para mí la vida que me quema.
F#m E D E
Tenías tanto que aprender
F#m D
y yo tanto por demostrar,
Bm D E A
por un instante, la eternidad


C# F#m
Me sobraba vida para amarte,
C# F#m
fotogramas que olvide al revelarte,
D A
ahora ya es demasiado tarde.
Bm E
Qué difícil es, qué difícil es


D E A
Para ti la vida que te lleva,
D E F#m
para mí la vida que me quema.
F#m E D E
Tenías tanto que aprender
F#m D
y yo tanto por demostrar,
Bm D E A
por un instante, la eternidad



###------------------------------###
### Tablatura de: Enrique Moraño ###
### Sevilla [Spain] ABR-2008 ###
### [email protected] ###
###------------------------------###


ACORDES PARA GUITARRA

PIANO UKELELE
A
D
Bm
E
F#m
C#


COMENTARIOS

Aún no hay comentarios,

¡escribe el primero!

Escribe una pregunta, duda o comentario sobre esta canción, te responderemos a la brevedad.

Las más tocadas de Loquillo

Toca una Canción al Azar de Loquillo
A
D
Bm
E
F#m
C#