Feo, fuerte y formal
Loquillo
Acordes

Subida por titolio21


Más Versiones
Ver. 2 Ver. 3

Cambiar Cifrado
Americano Latino

Cambiar Tonalidad
-1 +1

Partir Pantalla Imprimir FAQ

+A
-A
      Intro:


RE#5 SI5-DO5
e---------------------------------------------------------------------------------------
B---------------------------------------------------------------------------------------
G-------10b(12)-10-8---10b(12)-10b(12)-(10)-8---------10b(12)-10-8--10b(12)-10b(12)-8---
D---------------------------------------------------------------------------------------
A---------------------------------------------------------------------------------------
E---------------------------------------------------------------------------------------

RE5-RE#5 LA#5----SOL5#-SOL5-FA5
e-----------------------------------------------------------------------
B----------------------------------------11-11b(12)-----11--------------
G--10b(12)-10-8---10b(12)----(12)-10-8--------------12------------------
D-----------------------------------------------------------------------
A-----------------------------------------------------------------------
E-----------------------------------------------------------------------

RE5-RE#5 (muteados) RE5-RE#5 (muteados)
G--------- 12-10--8-8-12-10-12----------12-10--8-8-12-10-12------- +
D----------10--8--8-8-10--8-10----------10--8--8-8-10--8-10------- + Riff A
A----------10--8--6-6-10--8-10----------10--8--6-6-10--8-10------- +
E----------------------------------------------------------------- +


Después, cuando el Loco canta, después del Riff A, toca esto después de los acordes SI5-DO5,
que lo llamaremos Riff B:

(SI5-DO5) (muteados)
G---------8-7--5-5---8-7-8-------------------------- +
D---------6-5--5-5-x-6-5-6-------------------------- + Riff B
A---------6-5--3-3-x-6-5-6-------------------------- +
E--------------------------------------------------- +



RE5-RE#5
No vine aquí para hacer amigos
DO5 FA5$
pero sabes que siempre puedes contar conmigo.
LA#5
Dicen de mí que soy un tanto animal,
LA#5
pero en el fondo soy un sentimental.

RE5-RE#5 Riff A SI5-DO5
Mi familia no son gente normal
Riff B FA5$
de otra época y corte moral.

Que resuelven sus problemas de forma natural.
LA#5 SOL#5 SOL5 FA5
Para que discutir, si puedes pelear.

RE#5
Dame una sonrisa de complicidad
DO5
toda tu vida se detendrá.
FA5$
Nada será lo mismo, nada será igual,
LA#5
ya sabes... Feo, fuerte y formal.

RE#5
En el calor de la noche,

a plena luz del día,
DO5
siempre dispuesto para alegrarte el día.
FA5$
Hombre de bien a carta cabal
LA#5 SOL#5 SOL5 FA5
y como el Duque: Feo, fuerte y formal.

RE#5 SI5-DO5
e---------------------------------------------------------------------------------------
B---------------------------------------------------------------------------------------
G-------10b(12)-10-8---10b(12)-10b(12)-(10)-8---------10b(12)-10-8--10b(12)-10b(12)-8---
D---------------------------------------------------------------------------------------
A---------------------------------------------------------------------------------------
E---------------------------------------------------------------------------------------

FA5$ LA#5----SOL5#-SOL5-FA5
e-----------------------------------------------------------------------
B------------------------------------------------11-11b(12)-----11------
G--12b(13)-12-10---12b(13)--12b(13)-(12)-10-8---------------12----------
D-----------------------------------------------------------------------
A-----------------------------------------------------------------------
E-----------------------------------------------------------------------




RE5-RE#5 DO5
Mi fama me precederá
FA5$
hasta el infinito y más allá

y vive Dios que escrito está:
LA#5
"Si te doy mi palabra, no se romperá"


RE5-RE#5 Riff A
No vine aquí para hacer amigos
SI5-DO5 Riff B FA5$
pero sabes que siempre puedes contar conmigo.
LA#5
Dicen de mí que soy un tanto animal,
LA#5 SOL#5 SOL5 FA5 B--8/11bending suave, dejando sonar
pero en el fondo soy un sentimental.

RE#5
Dame una sonrisa de complicidad
DO5
toda tu vida se detendrá.
FA5$
Nada será lo mismo, nada será igual,
LA#5
ya sabes... Feo, fuerte y formal.

RE#5
En el calor de la noche,

a plena luz del día,
DO5
siempre dispuesto para alegrarte el día.
FA5$
Hombre de bien a carta cabal
LA#5 SOL#5 SOL5 FA5
y como el Duque: Feo, fuerte y formal.


RE5-RE#5 Riff A (2 veces)

RE5-RE#5 SI-DO5 MI5$-FA5$ LA#5----SOL#5---SOL5------FA5
Ya sabes feo, fuerte y formal (3-4 veces)


Cuando el Loco canta "Ya sabes..." la segunda guitarra repite estos arreglos anteriores:


B--8/11 bending suave, dejando sonar (1a vez)

B-11-11b(12)-----11--- (sucesivas)
G------------12-------


$ Quinta en escala aguda


Larga vida al Rock´n´Roll
Larga vida a Loquillo y Trogloditas


ACORDES PARA GUITARRA

PIANO UKELELE
D#5
B5
C5
B
D
A
E
D5
A#5
G7b13
G5
F5
G
G#5
B


COMENTARIOS

Aún no hay comentarios,

¡escribe el primero!

Escribe una pregunta, duda o comentario sobre esta canción, te responderemos a la brevedad.

Las más tocadas de Loquillo

Toca una Canción al Azar de Loquillo
D#5
B5
C5
B
D
A
E
D5
A#5
G7b13
G5
F5
G
G#5
B