Si el amor se cae (Los Cafres) Acordes

Álbum: ¿Quién da más? (2004)



Más Versiones de esta Canción | Ver. 2 | Ver. 3 | Ver. 4 | Ver. 5 |

Cambiar Cifrado: |SOL > G| - |G > SOL|

BAJAR UN TONO BAJAR UN SEMI-TONO SUBIR UN SEMI-TONO SUBIR UN TONO PARTIR PANTALLA EN VERTICAL PARTIR PANTALLA EN VERTICAL ¡Ayuda!
-A
+A
Si el amor se cae
Intro:
E----------------------------------------
B----------------------------------------
G-7h9p7h9p7h9p7h9p7h9p7h9p7h9vv-----7----
D-------------------------------7-9------
A----------------------------------------
E----------------------------------------


E---------------------------7-9p7vv------12-
B------------------------10---------10/12---
G-9b(11)r-p7--7----9b(11)------------------
D------------9-9vv-----------------------
A----------------------------------------
E----------------------------------------
-pm-

E------10-----7----5--5h7p5h7vv----------
B-12/10---10/7--7/5---5h7p5h7vv----------
G----------------------------------------
D----------------------------------------
A----------------------------------------
E----------------------------------------


Em A F#m Bm Em A D x 2


Em A
No es muy claro el cielo
D Bm
y esta cerca este desierto
Em A D
No hay amor en el diario de hoy
Em A F#m Bm
Si perdiste la pasión en un remate de dolor
Em riff
A destiempo va ese corazón



Estribillo:
Em A D Bm Em riff1
Si el amor se cae, todo alrededor se cae
Em A D Bm Em riff1
Si el amor se cae, todo alrededor se cae


Em/A F#m/ Bm Em/ A/ D x 2
E------------ E------------ E-------------------
B------------ B-15h17p15vv- B-------------------
G-14h16p14vv- G------------ G-12h1412------------
D------------ D------------ D--------14p12/10h12--
A------------ A------------ A-------------------
E------------ E------------ E-------------------




Em A D
Siento un cambio adentro que se aproxima
Bm Em
Aunque entiendo al que resigna,
A D G-14h16p14- riffx2
pero alcanzo al que camina
Em A
Tengo bronca, tengo tiempo,
D Bm
por eso canto, no creo el cuento
Em A D RIFF1
Resisten vidas, las siento mías, me inspiran

Estribillo:
Em A D Bm Em riff1
Si el amor se cae, todo alrededor se cae
Em A D Bm Em riff1
Si el amor se cae, todo alrededor se cae


Em Bm riff2
Los palos, las balas todo eso que me mata,
F#m Bm riff3
Es la soledad, es el hambre nuestra casa
Em Bm riff2
La confusión es alimento de los dueños
F#m A Em
Que te matan si pensas y envenenan la verdad, huooo

Acompañamiento del solo: Em / A / D / Bm

Solo de guitarra;

E-2-3-2h3p2---------2-3-5-3-2h3p2---------------
B-----------3-3/5vv---------------5-3-5-3-5-3---
G--------------------------------------------4--
D-----------------------------------------------
A-----------------------------------------------
E-----------------------------------------------

E----------------------------------------------
B-3/5vv--10b(12)-10b(12)-10-7-7----------------
G----------------------------9-9b(11)vvv-7b(9)-
D----------------------------------------------
A----------------------------------------------
E----------------------------------------------

E----------------------------------------------
B----------------------7-9p7-------------------
G-7b(9)-7vv----7-9b(11)-----9-7h9p7---7-9b(11)-
D------------9----------------------9----------
A----------------------------------------------
E----------------------------------------------

E----------------------------7-10b(12)r7-------
B-7-9p7------------------7-10-----------10b(12)
G------9-7h9p7---7-9b(11)----------------------
D--------------9-------------------------------
A----------------------------------------------
E----------------------------------------------

E-7---------------------15b(17)-12h14-12h14p12-----
B---10-7--------------------------------------15vv-
G-------9-7-9b(11)-7vv-----------------------------
D--------------------------------------------------
A--------------------------------------------------
E--------------------------------------------------

E----------------------------------------------
B-7-8-7h8p7------10b(12)-10b(12)---------------
G----------7/9vv-----------------9b(11)-9b(11)-
D----------------------------------------------
A----------------------------------------------
E----------------------------------------------

E-----------------------10-12-10h12p10-9-10----
B------------------10-12-------------------12--
G-7b(9)-7b(9)-7/9vv----------------------------
D----------------------------------------------
A----------------------------------------------
E----------------------------------------------

E----------------------------------------------
B----------------------------------------------
G-9b(11)r-p7-9-7vvv----------------------------
D-----------9----------------------------------
A----------------------------------------------
E----------------------------------------------

Estribillo:
Em A D Bm Em riff1
Si el amor se cae, todo alrededor se cae
Em A D Bm Em riff1
Si el amor se cae, todo alrededor se cae

Em A D Bm Em riff1
Si el amor se cae, todo alrededor se cae
Em A D Bm Em riff1
Si el amor se cae, todo alrededor se cae


Em / A / D / Bm



RIFF 1
E------12------10-----7-----5-----2------
B-10/12---12/10---10/7---7/5---5/3---3/5vv-
G----------------------------------------
D----------------------------------------
A----------------------------------------
E----------------------------------------

RIFF 2
E--------------------------
B-10-----------------------
G-12b(14)-11-9---11--------
D--------------12--12-9vv--
A--------------------------
E--------------------------

RIFF 3
E---------------------------------
B-12------12--12-----12-12vvv-----
G-14b(16)-----14b(16)---14b(16)vv-
D---------------------------------
A---------------------------------
E---------------------------------

locos espero q les guste esta transcripcion
mi correo es pablo_13_7@hotmail.com



¡Siguiente!

Toca una Canción al Azar de Los Cafres
Em
A
F#m
Bm
D
Em/A
E
B
G




Aún no hay comentarios, ¡escribe el primero!

Escribe un comentario o pregunta sobre esta canción:




Más canciones de Los Cafres

Alas Canciones
Si el amor se cae
Flor del Potrero
Dulce Muñequita
El paso gigante
Volar hasta allá
Otro Cuento
Suena la Alarma
See you comin'
Puedo
El Romano
Ya no hay
De mi mente
La Magia
Corazoncito
Chu chu
Suerte que te vi
Boicot a la ignorancia
Tu meta
Brilla

Siguiente


ABRIR ACORDES
Em
A
F#m
Bm
D
Em/A
E
B
G
[X]CERRAR ACORDES

Nuestro servidor se demoró 0.1 segundos en generar esta página. Eso fue realmente muy rápido!