No me necesitas (Acordes)

Los fuckin sombreros

Subida por jomabual

Compartir


Cambiar Cifrado
Americano Latino

Cambiar Tonalidad
-1 +1
Imprimir FAQ
+A
-A

Texto

Desplazamiento

Transportador

Color de Fondo

Archivos

TONALIDAD, TAMAÑO, CIFRADO, SCROL.

Nos renovamos: Ahora puedes cambiar TODO haciendo clic en ICONO de la Guitarra () que aparece en la parte inferior de esta página.


LETRA CON ACORDES

Intro: riff 1 x4

riff 1
e|-------------------------------|
b|-------------------------------|
g|-------------------------------|
d|----7-7----7-7-----7---5---6---|
a|-------------------------------|
E|-5-5----5-5-----5-5---3---4----|

riff 2
e|-------------------------------|
b|-------------------------------|
g|----7-7----7-7-----7---5---6---|
d|-------------------------------|
a|-5-5----5-5-----5-5---3---4----|
E|-------------------------------|



riff 1
No me necesitas
riff 1
Yo no se por qué
riff 1
Tanta insistencia
riff 1
Si es tan demodé

No me necesitas
No lo puedes ver
Si es algo tan simple
2+2 son 3

F5          G5
Te quiero esperar
F5        G5
Mr. porno man

Intro

No me necesitas
No me entiendes bien
Mi vida está muerta
Yo la asesiné

Dulce caramelo
Chupete lolipop
Eco de un amor

Te quiero esperar
Mr. Porno Man

A5

Base del solo: riff 1 x3 riff 2 x3 riff 1 x2

   A5   C5   D5
e|--------------------------|
b|--------------------------|
g|--------------------------| x4 pero en la cuarta
d|------5-5--7-7----5---6---|    solo hace A5 C5 D5
a|-7-7--3-3--5-5------------|
E|-5-5------------3---4-----|


riff 1 x3

Te quiero esperar
Mr. Porno Man         x3
riff 1 x1

Fin: A5


Video Clip de No me necesitas


ACORDES PARA GUITARRA

PIANO UKELELE
F5
G5
A5
C5
D5


TOP 20: Las más tocadas de Los fuckin sombreros


Acordes

Cerrar
F5
G5
A5
C5
D5

14.19


60