No me necesitas
Los fuckin sombreros
Acordes

Subida por jomabual


Más Versiones
Ver. 2 Ver. 3

Cambiar Cifrado
Americano Latino

Cambiar Tonalidad
-1 +1

Partir Pantalla Imprimir FAQ

+A
-A


Ver solo la LETRA
Intro: riff 1 x4

riff 1
e|-------------------------------|
b|-------------------------------|
g|-------------------------------|
d|----7-7----7-7-----7---5---6---|
a|-------------------------------|
E|-5-5----5-5-----5-5---3---4----|

riff 2
e|-------------------------------|
b|-------------------------------|
g|----7-7----7-7-----7---5---6---|
d|-------------------------------|
a|-5-5----5-5-----5-5---3---4----|
E|-------------------------------|



riff 1
No me necesitas
riff 1
Yo no se por qué
riff 1
Tanta insistencia
riff 1
Si es tan demodé

No me necesitas
No lo puedes ver
Si es algo tan simple
2+2 son 3

F5 G5
Te quiero esperar
F5 G5
Mr. porno man

Intro

No me necesitas
No me entiendes bien
Mi vida está muerta
Yo la asesiné

Dulce caramelo
Chupete lolipop
Eco de un amor

Te quiero esperar
Mr. Porno Man

A5

Base del solo: riff 1 x3 riff 2 x3 riff 1 x2

A5 C5 D5
e|--------------------------|
b|--------------------------|
g|--------------------------| x4 pero en la cuarta
d|------5-5--7-7----5---6---| solo hace A5 C5 D5
a|-7-7--3-3--5-5------------|
E|-5-5------------3---4-----|


riff 1 x3

Te quiero esperar
Mr. Porno Man x3
riff 1 x1

Fin: A5


ACORDES PARA GUITARRA

PIANO UKELELE
F5
G5
A5
C5
D5


COMENTARIOS

Aún no hay comentarios,

¡escribe el primero!

Escribe una pregunta, duda o comentario sobre esta canción, te responderemos a la brevedad.

Las más tocadas de Los fuckin sombreros

Toca una Canción al Azar de Los fuckin sombreros
F5
G5
A5
C5
D5