Sha-la-la
Los fuckin sombreros
Acordes

Subida por Aguirre


Más Versiones
Ver. 2 Ver. 3 Ver. 4 Ver. 5

Cambiar Cifrado
Americano Latino

Cambiar Tonalidad
-1 +1

Partir Pantalla Imprimir FAQ

+A
-A
Intro, Verso 1, Verso 2, Verso 3 y Verso 4:  (Sonido Limpio)

|--1-2-x-x-2-x-x-2-1-2-x-x-2-x-x-2-1-2-x-x-2-x-x-2-1
|--2-3-x-x-3-x-x-3-2-3-x-x-3-x-x-3-2-3-x-x-3-x-x-3-2
|--1-2-x-x-2-x-x-2-1-2-x-x-2-x-x-2-1-2-x-x-2-x-x-2-1
|---------------------------------------------------
|---------------------------------------------------
|---------------------------------------------------



Verso 1:

6 de la mañana presentame a tu hermana
la llevo a la esquina y le doy una propina

Bridge:

G5 A5 G5 A5
Y apagen la tele, y prendan otro mas

G5 A5
no hay nada mejor que cantar

Repetir Intro:

Verso 2:

Joel en la cocina, prepara medicina (aha ha aha ha)
Lola 1000 pastillas la sacan en camilla (aha ha aha ha)

Bridge: (Sonido Distorcionado)

G5 A5 G5 A5
Y apagen la tele, y prendan otro mas

G5 A5
no hay nada mejor que cantar

CORO: (Sonido Distorcionado)

D Bm G5 A5 D

Laa, Sha-la-la-la, sha-la-la-la, sha-la-la-la, ooh ooh laa

D Bm G5 A5

Sha-la-la-la, sha-la-la-la, sha-la-la-la, ooh ooh laa

(Aca viene el Solo que no lo he sacado)


(En este verso, se toca lo mismo que en los otros versos y en la intro pero
haciendo Palm Mute a los acordes)

Verso 3: (Sonido: Palm Mute)

Todos los momentos, aquellos buenos tiempos
se van a la deriva y no hay nada que lo impida

(Aca ya se toca normal)

Verso 4:

6 de la mañana, camino a la fama (aha ha aha ha)

pero la policia me dio su porqueria (aha ha aha ha)


Bridge: (Sonido Distorcionado)

G5 A5 G5 A5
Y apagen la tele, y prendan otro mas

G5 A5
no hay nada mejor que cantar

CORO: (Sonido Distorcionado)

D Bm G5 A5 D

Laa, Sha-la-la-la, sha-la-la-la, sha-la-la-la, ooh ooh laa

D Bm G5 A5

Sha-la-la-la, sha-la-la-la, sha-la-la-la, ooh ooh laa

(Aca viene el 2do solo, que lo voi a poner pero no estoy seguro
si esta completamente bien)

|--------------------------------------------5b-5-3-5----
|---5-7-5------5-7-5------5-7-5--5b-5-7-8-7-5------7-7-5-
|-7b------7-5-7------7-5-7------7-----------------------7
|--------------------------------------------------------
|--------------------------------------------------------
|--------------------------------------------------------

|---6--6---6----------------------
|------------7-5--5b-5-7-8-7-5----
|-5--5---5-------7-------------7--
|---------------------------------
|---------------------------------
|--------------------------------

CORO: (Sonido Distorcionado)

D Bm G5 A5 D

Laa, Sha-la-la-la, sha-la-la-la, sha-la-la-la, ooh ooh laa

D Bm G5 A5

Sha-la-la-la, sha-la-la-la, sha-la-la-la, ooh ooh laa

D Bm G5 A5 D

Laa, Sha-la-la-la, sha-la-la-la, sha-la-la-la, ooh ooh laa

D Bm G5 A5

Sha-la-la-la, sha-la-la-la, sha-la-la-la, ooh ooh laa


ACORDES PARA GUITARRA

PIANO UKELELE
G5
A5
D
Bm


COMENTARIOS

Aún no hay comentarios,

¡escribe el primero!

Escribe una pregunta, duda o comentario sobre esta canción, te responderemos a la brevedad.

Las más tocadas de Los fuckin sombreros

Toca una Canción al Azar de Los fuckin sombreros
G5
A5
D
Bm