c ▷ SUSI BLUE: (Los fuckin sombreros) Acordes para Guitarra, Piano & Ukelele

Susi blue (Acordes)

Los fuckin sombreros

Subida por Juanjo1987

Compartir


Imprimir FAQ
+A
-A

Texto

Desplazamiento

Transportador

Color de Fondo

Archivos

-A
+A
Intro:
D  -  Dsus4 (x 4)

Riff
|----------------------------|
|----------------------------|
|--3-3-3-5b----5-5-5-5-5-5-3-| (x2)
|-5-5-5----------------------|
|----------------------------|
|----------------------------|

G  -  Bb  -  C - (Bb)[x 13 veces]
-
-No puedo dejarte
-MI Susi blue
-No puedo seguir
-sin Droopy Sue
-No puedo pensar
-te tengo que olvidar
-pero siempre vas a ser
-...
-mi Waterloo
-...
-mi Waterloo
-...
D
Yea


G  - Bb   - C   -         D
aah -aah - aah Yo no soy nada si tu amor
G  - Bb   - C   -         D
aah -aah - aah Yo no soy nada si tu amor



G   -  Bb   -   C  - (Bb) [x 13 veces]
-
-No puedo olvidarte
-MI Susi Blue
-No puedo seguir
-Sin Droopy Sue
-No puedo pensar
-Te tengo que olvidar
-Pero siempre vas a ser
-...
-mi Waterloo
-...
-mi Waterloo
-...
D



 G  - Bb   - C   -          D
(aah -aah - aah) Yo no soy nada si tu amor
 G  - Bb   - C   -          D
(aah -aah - aah) Yo no soy nada si tu amor -  o -o- o- o- or
 G  - Bb   - C   -          D
(aah -aah - aah) ......... I said
 G  - Bb   - C
(aah -aah - aah) o - o - o - o -or



  Cm                   Bb
|--3-------------------1-----------1-----|
|--4-------------------3-------------3---|
|--5-------------------3---------------3-|
|--5-------------------3-----------------|
|--3-------------------1-----------------|
|--3-------------------1-----------------|
   Y no me queda mucho tiempo

  Cm                   Bb
|--3-------------------1-----------1-----|
|--4-------------------3-------------3---|
|--5-------------------3---------------3-|
|--5-------------------3-----------------|
|--3-------------------1-----------------|
|--3-------------------1-----------------|

   No puedo    disimular

  Cm                      Bb               D-Dsus4-D-Dsus4
|--3----------------------1--------1-------5--5--5--5--|
|--4----------------------3----------3-----7--8--7--8--|
|--5----------------------3------------3---7--7--7--7--|
|--5----------------------3----------------7--7--7--7--|
|--3----------------------1----------------5--5--5--5--|
|--3----------------------1----------------5--5--5--5--|

   Si nos encuentran habrá mucho que explicar





Solo:
Acordes :G  -  Bbm  -  C - (Bbm)
Tab: empieza
|--------------------------------------------|
|--------------------------------------------|
|-0h3p0h3p0h3p0h3p0h3p0h3p0h3p0h3p0h3p0h3p0--|
|--------------------------------------------|
|--------------------------------------------|
|--------------------------------------------|

|-------------------------|
|-------------------------|
|-5b-5b-5b-5b-5br-3h5p3---|
|-----------------------5-|
|-------------------------|
|-------------------------|



 G  - Bb   - C   -          D
(aah -aah - aah) Yo no soy nada si tu amor ...
 G  - Bb  - C   -          D
(aah -aah - aah) Yo no soy nada si tu amor -  o -o- o- o- or...
 G  - Bb   - C   -          D
(aah -aah - aah) ......... I said
 G  - Bb   - C   -          D
(aah -aah - aah) o - o - o - o -or ...
(aah -aah - aah) yeah - yeah - yeah - yeah
(aah -aah - aah) ......... I said

G


Video Clip de Susi blue


ACORDES PARA GUITARRA

PIANO UKELELE
D
Dsus4
G
Bb
C
E
Cm
Bbm


TOP 20: Las más tocadas de Los fuckin sombreros


Acordes

Cerrar
D
Dsus4
G
Bb
C
E
Cm
Bbm

05.47

x

111