Compartir


Cambiar Cifrado
Americano Latino

Cambiar Tonalidad
-1 +1
Imprimir FAQ
+A
-A

Texto

Desplazamiento

Transportador

Color de Fondo

Archivos

TONALIDAD, TAMAÑO, CIFRADO, SCROL.

Nos renovamos: Ahora puedes cambiar TODO haciendo clic en ICONO de la Guitarra () que aparece en la parte inferior de esta página.


LETRA CON ACORDES

Intro: Riff 1 x2
 Riff 2


    Riff 1

e|----------------------------------------------|
B|----------------------------------------------|
G|----------------------------------------------|
D|-----9-7-6-7-6-------------7-5-4-5-4----------|
A|---9-----------9-9-7-6---7-----------7-7------|
E|-7---------------------5-----------------5-6--|

     Riff 2

E|---------------------------------|
B|---5-3---5-3--------3-2---3-2----|
G|-------4-----4-4h2------2-----2--|
D|---------------------------------|
A|---------------------------------|
E|-7-------------------------------|

   A/C#        D6
E|--2---|   E|-----|
B|--2---|   B|--3--|
G|--2---|   G|--4--|
D|--2---|   D|--4--|
A|--4---|   A|--5--|
E|------|   E|-----|


( A/C# D6 A/C# D6 A/C# Bm) x2

Bm                            A
  Su amnesia esta bajo un aguacero hoy

Bm                            A
  Y así hace del pichicho profeta cruel

Bm                       A
  Vuelcan su jugo allí y luego se van

Bm                      A
  La piba esa, el y un atún

A/C# D6   A/C#   D6             Bm
      Un  agu--jero alli de un año

A/C# D6       A/C# D6            Bm
      Ningun  re--cuerdo, nada, nada

Bm

  No actúa por amor ni por esplendor
  Se raja al culeodromo a recordar
  Se va a fumar alli el purete mejor
  Y va a matar el tiempo asi

  Mareos que dan gran jaleo
  Modales que son malas mañas

  Ningún recuerdo, nada, nada

  Escamas que al fin, huyen de su piel
  Lagrimas que le muerden el corazón
  Van a ver quien se come a quien esta vez
  La piba esa, el y un atún


Video Clip de Amnesia


ACORDES PARA GUITARRA

PIANO UKELELE
A/C#
D6
Bm
A



Acordes

Cerrar
A/C#
D6
Bm
A

21.24

x

81