Compartir


Imprimir FAQ
+A
-A

Texto

Desplazamiento

Transportador

Color de Fondo

Archivos

-A
+A
SIm                LA
Cómo acoplar al sistema solar 
SIm             LA
este lucero de amor 
SOL           FA#m                SIm
y viajar a tu centro desde mi interior. 

SIm               LA
Cómo saber si el otoño es feliz 
SIm                 LA
tras la derrota estival 
SOL                FA#m
todo pareciera tan fácil aquí 
SOL                 FA#m    LA
tan natural como un río que va. 

     RE MI   FA#m      RE  MI      LA
Pero nada es así, la razón toca el fin 
SOL                FA#m
la teoría del amor, no me acerca a tí 
SOL         MI          LA
siempre paralelo con tu riel. 

RE              LA
Cómo atrapar tu brillo en mí 
RE              LA  FA#7
perla de oscuro mar 
SIm           FA#m         LA
cómo saber tu sueño de cristal  
SIm            FA#m          SIm
cómo puedo yo saber si me amarás. 

SOLO*

MISMOS ACORDES 

Cómo trazar un esquema sin tí 
para un diseño de amor 
cómo saber que es sólo mi imaginación. 

Cómo saber si en tu espacio estoy yo 
enarbolando la luz 
todo pareciera tan fácil aquí 
tan natural como tú, como yo.

REPITE DESDE ´Pero nada es así...´ y termina repitiendo ´Cómo puedo yo saber si me amarás´.



SOLO * Con acordes Re - La - Do - Sim x 2

---------------14-------14-15-14-12---------------------------12-14------------1ra
------------------------------------15-114------12---------12---------15-------2da
-4/14-14-14-14-------14----------------------------12-9-12---------------------3ra

---------------14-------14-15-14-12-----------12------12--15-14----------19--------19-----1ra
-------------------------------------15--14-----13--13------------------------------------2da
-4/14-14-14-14-------14---------------------------12------------16-16-16---16---16---16---3ra

/=Arrastre ascendente



ARPEGIO PARA LA ESTROFA:

-7-----7-----5-----5----7-----7-----5------5----3----3----2-----2---7-----7----1ra
----7----7------5---5------7---7-------55---5-----3---3------2---2-----7---7---2da
-7---7-------6---6------7---7-------6----6------4--4------2---2-----7---7------3ra

SEGUNDA ESTROFA: Realiza las mismas notas mas esto:
--7---7---7----5---5---5----1ra
---7---7--------5---5-------2da 
7---7---7----6---6---6------3ra


Video Clip de Como saber


ACORDES PARA GUITARRA

PIANO UKELELE
Bm
A
G
F#m
D
E
F#7


TOP 20: Las más tocadas de Los Nocheros


Acordes

Cerrar
Bm
A
G
F#m
D
E
F#7

18.35

x

102