c ▷ JUAN DE LA CALLE: (Los Nocheros) Acordes para Guitarra, Piano & Ukelele

Juan de la calle (Acordes)

Los Nocheros

Full Álbum: Con el alma (2006)
Subida por Agarciadrums

Compartir


Imprimir FAQ
+A
-A

Texto

Desplazamiento

Transportador

Color de Fondo

Archivos

-A
+A
Hola... aqui les dejo la correccion del punteo de
Juan De la Calle.. a mi me suena igualito
pero bueno.. .. espero la opinion de todos ustedes muchas gracias!!!

intro

E||--3--------3-5----3-5--(termina en 3)------|Riff 1
B||----5---5-------5--------------------------| X8
G||------4------------------------------------|
D||-------------------------------------------|
A||-------------------------------------------|
E||-------------------------------------------|


                                                    |
E||------3-5-7-------7--7-12---7/8-8-8-7-7-5-5-3-3| |
B||----5-----------8------------------------------| |
G||--4-----------9--------------------------------| |
D||-----------------------------------------------| |
A||-----------------------------------------------| |
E||-----------------------------------------------| |
                                                    | Todo esto es el Riff
                                                    | principal que termina
                                                    | desp. de c/ estrofa
                                                    | (Riff 2)
E||------3-5-7-------7--7-12---7/8-8-8-7-7-11-12--| |
B||----5-----------8------------------------------| |
G||--4-----------9--------------------------------| |
D||-----------------------------------------------| |
A||-----------------------------------------------| |
E||-----------------------------------------------| |


MI
soy nacido en cualquier villa
           RE7       SOL
me llaman juan de la calle
                   MI
diariero por la mañana
                  SOL
y lustra botas de tarde
                        MI
soy nacido en cualquier villa
          SI7         MI
me llaman juan de la calle


Riff 2

(Sigue todo igual)

a mi me enseño el baldio
a gambetear por la orilla
en la vida por el centro
me pone la sancadilla
a mi me enseño el baldio
a gambetear por la orilla

Riff 2

mi barquito de ilusion
rema contra la corriente
y con el hilodel alma
busca el sol mi barrilete
mi barquito de ilusion
rema contra la corriente

Estribillo

 MI
Soy de una villa y disculpe
             RE7        SOL
el diablo en cualquier lugar
                  MI
y el indio de la comparsa
                  SOL
cundo llega el carnaval
                     MI
soy de una villa de salta
             SI7       MI
el diablo en cualquier lugar


E||-----------------------------------------------|
B||-----------------------------------------------|
G||-----------------------------------------------|
D||-----------------------------------------------|
A||--------2-0-0-2-----------2-0-0-2--------------|
E||--0-2-3---------3-2-0-2-3---------3-2-0-3-2----|

Riff 2

mi padre en un carro viejo
paso comprando botellas
y si la cosa no cambia
yo he de seguir con su estrella
mi padre en un carro viejo
paso comprando botellas

Riff 2

como soñar nada cuesta
yo largo al rio mi anzuelo
a ver si una noche de estas
puedo enganchar el lucero
como soñar nada cuesta
yo largo al rio mi anzuelo

Riff 2

al terminar la jornada
no tengo mejor fortuna
que meterme en los bolsillos
la moneda de la luna
al terminar la jornada
no tengo mejor fortuna

Estribillo

   FIN


-.-" Yo Edu pue!! xD

Espero les guste ^^
Y Vamos los  Nocheros chee!!! jejee...


Video Clip de Juan de la calle


ACORDES PARA GUITARRA

PIANO UKELELE
E
D7
G
B7


TOP 20: Las más tocadas de Los Nocheros


Acordes

Cerrar
E
D7
G
B7

17.22

x

75