Reloj

Luis Miguel

Acordes

Subida por KENTHSDQ


Más Versiones
Ver. 2 Ver. 3 Ver. 4 Ver. 5 Ver. 6

Cambiar Cifrado
Americano Latino

Cambiar Tonalidad
-1 +1

Partir Pantalla Imprimir FAQ

+A
-A


Ver solo la LETRA
e-1-1-1-------3-3/--1-1---------3-----1-1-1-------3-3/---1-1-1-------3----
B-------3-3-3-----------3-3-3-3---2/--------3-3-3--------------3-3-3---2/-
F F F D D D G G F F D D D D G C F F F D D D G G F F F D D D G C
e-------------------------------------------------------------------------
B-------------------------------------------------------------------------
G-------------------------------------------------------------------------
D-3-3-3-------5-5/--3-3-0-0-----5-----3-3-3-0----0-5-5/--3-3-3-0------5---
A-------5-5-5---------------5-5---2/-----------5-----------------5-5----2/
E-------------------------------------------------------------------------
(se repite)


F Dm Gm
Reloj no marques las horas
F Dm C7
Porque voy a enloquecer
F Dm Gm
Ella se irá para siempre
F Dm C7
Cuando amanezca otra vez

F Dm Gm
Nomás nos queda esta noche
F Dm C7
Para vivir nuestro amor
F Dm Gm
Y tu tic tac me recuerda
F Dm C7
Mi irremediable dolor

A# Dm A
Reloj detén tu camino
A# C7 F
Porque mi vida se apaga
Gm C7 F Dm
Ella es la estrella que alumbra mi ser
Gm C7 F
Yo sin su amor no soy nada.

A# Dm A
Detén el tiempo en tus manos
A# C7 F
Haz de esta noche perpetua
Gm C7 F Dm
Para que nunca se vaya de mí
Gm C7 F
Para que nunca amanezca

A# Dm A
Reloj detén tu camino
A# C7 F
Porque mi vida se apaga
Gm C7 F Dm
Ella es la estrella que alumbra mi ser
Gm C7 F
Yo sin su amor no soy nada.

A# Dm A
Deten el tiempo en tus maa....


NUEVO FORO DE MÚSICA

¿Tienes alguna duda, consulta, pregunta, consejo o algo para compartir sobre esta canción?

¡Puedes abrir un hilo en el FORO para que la comunidad te ayude! Hacer una pregunta

ACORDES PARA GUITARRA

PIANO UKELELE
F
D
G
C
Dm
Gm
C7
A#
A


Las más tocadas de Luis Miguel

F
D
G
C
Dm
Gm
C7
A#
A