O Que É O Que É? (part. Simone e Simaria) (Acordes)

Marília Mendonça

Subida por Dovi

Compartir


Cambiar Cifrado
Americano Latino

Cambiar Tonalidad
-1 +1
Imprimir FAQ
+A
-A

Texto

Desplazamiento

Transportador

Color de Fondo

Archivos

TONALIDAD, TAMAÑO, CIFRADO, SCROL.

Nos renovamos: Ahora puedes cambiar TODO haciendo clic en ICONO de la Guitarra () que aparece en la parte inferior de esta página.


LETRA CON ACORDES

[Intro] G  D  Am7  C
        G  D  Am7  C

E|--------7--7-----7-----8--7------------10-----------|
B|-8--10-------------10-----------10--8------10-------|
G|----------------------------------------------------|
D|----------------------------------------------------|
A|----------------------------------------------------|
E|----------------------------------------------------|

E|----------------------------------------------------|
B|---10h12----8h10p8------------10h12----8h10p8-------|
G|--------------------9-------------------------9-----|
D|----------------------------------------------------|
A|----------------------------------------------------|
E|----------------------------------------------------|

E|-------5/7-7--7p5----7h8-8p7------8h10--------------|
B|-----8------------8----------10-8------10-----------|
G|-7-9------------------------------------------------|
D|----------------------------------------------------|
A|----------------------------------------------------|
E|----------------------------------------------------|

E|----------------------------------------------------|
B|---10h12----8h10p8------------10h12----8h10p8-------|
G|--------------------9-------------------------9-----|
D|----------------------------------------------------|
A|----------------------------------------------------|
E|----------------------------------------------------|
  
[Primeira Parte]

    G
Eu vou fazer o quizz dos namorados
                               Am7
Levanta a mão quem vai participar
                           C
Depois das dicas, juro, fica fácil
                       G  
Aí vai todo mundo acertar

[Pré-Refrão]

     Am7        C                         G
Dica 1: Quem detém é sempre o último a saber
     Am7          C                 G
Dica 2: Quem não tem, um dia ainda vai ter

[Refrão]

               G
O que é, o que é?
                    D
Quem souber, me responde
             Am7
Arma para o boi
                 C
Vergonha para o homem
               G
O que é, o que é?
                  D
Alguém tem um palpite?
    Am7       C
É chifre, é chifre

               G
O que é, o que é?
                    D
Quem souber, me responde
             Am7
Arma para o boi
                 C
Vergonha para o homem
               G
O que é, o que é?
                  D
Alguém tem um palpite?
    Am7       C
É chifre, é chifre

[Solo] G  D  Am7  C
       G  D  Am7  C  D

E|--------7--7-----7-----8--7------------10-----------|
B|-8--10-------------10-----------10--8------10-------|
G|----------------------------------------------------|
D|----------------------------------------------------|
A|----------------------------------------------------|
E|----------------------------------------------------|

E|----------------------------------------------------|
B|---10h12----8h10p8------------10h12--8h10-10p8------|
G|--------------------9--------------------------9----|
D|----------------------------------------------------|
A|----------------------------------------------------|
E|----------------------------------------------------|

E|----------------------------------------------------|
B|-------13-------12------13-------12----13p12----12--|
G|----12----12-------12------12-------12-------12-----|
D|-14----------14------14-------14--------------------|
A|----------------------------------------------------|
E|----------------------------------------------------|

E|----------------------------------------------------|
B|-12p10----10-------12p10----10----------------------|
G|-------11----11----------------11-------------------|
D|----------------12-------12-------12----------------|
A|----------------------------------------------------|
E|----------------------------------------------------|

E|----------------------------------------------------|
B|---10h12----8h10p8------------10h12--8h10-10p8------|
G|--------------------9--------------------------9----|
D|----------------------------------------------------|
A|----------------------------------------------------|
E|----------------------------------------------------|

E|------14-15~----------------------------------------|
B|---15-----------------------------------------------|
G|----------------------------------------------------|
D|----------------------------------------------------|
A|----------------------------------------------------|
E|----------------------------------------------------|

[Primeira Parte]

    G
Eu vou fazer o quizz dos namorados
                               Am7
Levanta a mão quem vai participar
                           C
Depois das dicas, juro, fica fácil
                       G  
Aí vai todo mundo acertar

[Pré-Refrão]

     Am7        C                         G
Dica 1: Quem detém é sempre o último a saber
     Am7          C                 G
Dica 2: Quem não tem, um dia ainda vai ter

[Refrão]

               G
O que é, o que é?
                    D
Quem souber, me responde
             Am7
Arma para o boi
                 C
Vergonha para o homem
               G
O que é, o que é?
                  D
Alguém tem um palpite?
    Am7       C
É chifre, é chifre

               G
O que é, o que é?
                    D
Quem souber, me responde
             Am7
Arma para o boi
                 C
Vergonha para o homem
               G
O que é, o que é?
                  D
Alguém tem um palpite?
    Am7       C
É chifre, é chifre

               G
O que é, o que é?
                    D
Quem souber, me responde
             Am7
Arma para o boi
                 C
Vergonha para o homem
               G
O que é, o que é?
                  D
Alguém tem um palpite?
    Am7       C
É chifre, é chifre

               G
O que é, o que é?
                    D
Quem souber, me responde
             Am7
Arma para o boi
                 C
Vergonha para o homem
               G
O que é, o que é?
                  D
Alguém tem um palpite?
    Am7       C
É chifre, é chifre

[Final]

E|-------5/7-7--7p5----7h8-8p7------8h10--------------|
B|-----8------------8----------10-8------10-----------|
G|-7-9------------------------------------------------|
D|----------------------------------------------------|
A|----------------------------------------------------|
E|----------------------------------------------------|

E|----------------------------------------------------|
B|---10h12----8h10p8------------10h12----8h10p8-------|
G|--------------------9-------------------------9-----|
D|----------------------------------------------------|
A|----------------------------------------------------|
E|----------------------------------------------------|

Video Clip de O Que É O Que É? (part. Simone e Simaria)


ACORDES PARA GUITARRA

PIANO UKELELE
G
D
Am7
C


TOP 20: Las más tocadas de Marília Mendonça


Acordes

Cerrar
G
D
Am7
C

12.33

x

146