Distant Lover (Acordes)

Marvin Gaye

Full Álbum: (1973)
Subida por lexbc

Compartir


Imprimir FAQ
+A
-A

Texto

Desplazamiento

Transportador

Color de Fondo

Archivos

-A
+A
Parte I
G|----------------------|
D|----------------------| (2x)
A|---7---10-------------|
E|-8--------------------|

Parte II
G|----------------------|
D|----------------------| (2x)
A|----5---8-------------|
E|-6--------------------|

Parte III
G|----------------------|
D|----------------------| (2x)
A|----2---5-------------|
E|-3--------------------|

Parte VI
G|----------------------|
D|----------------------|
A|---10---10------------|
E|-8----8----8----------|

Parte V
G|----------------------|
D|----------------------|
A|---8---8--------------|
E|-6---6---6------------|

Parte VI
G|----------------------|
D|----------------------|
A|---5---5--------------|
E|-3---3---3------------|

Parte VII
G|----------------------|
D|------10--------------|
A|---10----10-----------|
E|-8----------8---------|

Parte VIII
G|----------------------|
D|-----8----------------|
A|---8---8--------------|
E|-6-------6------------|

Parte IX
G|----------------|
D|-----5----------|
A|---5---5--------|
E|-3-------3------|

Video Clip de Distant Lover


ACORDES PARA GUITARRA

PIANO UKELELE


TOP 20: Las más tocadas de Marvin Gaye


Toca una Canción al Azar de Marvin Gaye

Acordes

Cerrar

01.41

x

30