Distant Lover
Marvin Gaye
Acordes

Subida por lexbc
Álbum: ( 1973)



HERRAMIENTAS

Cambiar Cifrado
Americano Latino

Cambiar Tonalidad
-1 +1

Partir Pantalla Imprimir FAQ

Ver solo la LETRA

+A
-A

LETRA CON ACORDES

¿Tu Guitarra esta Afinada? PRUEBA NUESTRO NUEVO AFINADOR

Parte I
G|----------------------|
D|----------------------| (2x)
A|---7---10-------------|
E|-8--------------------|

Parte II
G|----------------------|
D|----------------------| (2x)
A|----5---8-------------|
E|-6--------------------|

Parte III
G|----------------------|
D|----------------------| (2x)
A|----2---5-------------|
E|-3--------------------|

Parte VI
G|----------------------|
D|----------------------|
A|---10---10------------|
E|-8----8----8----------|

Parte V
G|----------------------|
D|----------------------|
A|---8---8--------------|
E|-6---6---6------------|

Parte VI
G|----------------------|
D|----------------------|
A|---5---5--------------|
E|-3---3---3------------|

Parte VII
G|----------------------|
D|------10--------------|
A|---10----10-----------|
E|-8----------8---------|

Parte VIII
G|----------------------|
D|-----8----------------|
A|---8---8--------------|
E|-6-------6------------|

Parte IX
G|----------------|
D|-----5----------|
A|---5---5--------|
E|-3-------3------|////////////////// ¿Te Animas? Sube una canción a este sitio. //////////////////

ACORDES PARA GUITARRA

PIANO UKELELE


COMENTARIOS

Aún no hay comentarios,

¡escribe el primero!

Escribe una pregunta, duda o comentario sobre esta canción, te responderemos a la brevedad.

Las canciones más tocadas de Marvin Gaye

Toca una Canción al Azar de Marvin Gaye

18.10


Nuestro servidor se demoró 0.01 segundos en generar esta página. Eso fue realmente muy rápido!