Um Anjo do Céu (Acordes)

Maskavo

Subida por jecccastro

Compartir


Imprimir FAQ
+A
-A

Texto

Desplazamiento

Transportador

Color de Fondo

Archivos

-A
+A
[Intro] B  F#  E  B
        B  F#  E  B

E|-2------------------2-------------------------------|
B|------4---2/4-2---------4---2/4-0-------------------|
G|----4---4-------------4---4-------------------------|
D|----------------------------------------------------|
A|----------------------------------------------------|
E|----------------------------------------------------|

E|-2------------------2-------------------------------|
B|------4---2/4-2---------4---2/4-0-------------------|
G|----4---4-------------4---4-------------------------|
D|----------------------------------------------------|
A|----------------------------------------------------|
E|----------------------------------------------------|

[Primeira Parte]

         B
Um anjo do céu

Que trouxe pra mim
            C#m
É a mais bonita
           E    F#
A jóia perfeita

              B
Que é pra eu cuidar

Que é pra eu amar
            C#m
Gota cristalina
             E     F#
Tem toda inocência

[Refrão]

 B           F#
Vem, Óh meu bem
           E
Não chore não
                   B
Eu vou cantar pra você
 B           F#
Vem, Óh meu bem
           E
Não chore não
                   B
Eu vou cantar pra você

[Solo] B C#m E

[Parte 1 de 3]

E|----------------------------------------------------|
B|------4-------4----------4---4-5-4------------------|
G|--4-4-4-4-4-4-4-4-4--4-4-4-4-4-6-4------------------|
D|--4-6---6-4-6---6-4--4-6---6------------------------|
A|----------------------------------------------------|
E|----------------------------------------------------|

[Parte 2 de 3]

E|----------------------------------------------------|
B|--------4-5-5/7-5-4-5/7-5---------------------------|
G|--4-4-4-4-6-6/8-6-4-6/8-6---------------------------|
D|--6-4-6---------------------------------------------|
A|----------------------------------------------------|
E|----------------------------------------------------|

[Parte 3 de 3]

E|----------------------------------------------------|
B|--4-5-4-5-5/7-5-7-7/9--5/75/7-4--------------------|
G|--4-6-4-6-6/8-6-8-8/9--6/86/8-4--------------------|
D|----------------------------------------------------|
A|----------------------------------------------------|
E|----------------------------------------------------|

[Segunda Parte]

            B
Um anjo do céu

Que me escolheu
             C#m
Serei o seu porto
               E   F#
Guardião da pureza

              B
Que é pra eu cuidar

Que é pra eu amar
             C#m
Gota cristalina
             E    F#
Tem toda inocência

[Refrão]

 B           F#
Vem, Óh meu bem
           E
Não chore não
                   B
Eu vou cantar pra você
 B           F#
Vem, Óh meu bem
           E
Não chore não
                   B
Eu vou cantar pra você

 B           F#
Vem, Óh meu bem
           E
Não chore não
                   B
Eu vou cantar pra você
 B           F#
Vem, Óh meu bem
           E
Não chore não
                   B
Eu vou cantar pra você

B  F#  E  B )
B  F#  E  B )

E|-2------------------2-------------------------------|
B|------4---2/4-2---------4---2/4-0-------------------|
G|----4---4-------------4---4-------------------------|
D|----------------------------------------------------|
A|----------------------------------------------------|
E|----------------------------------------------------|

E|-2------------------2-------------------------------|
B|------4---2/4-2---------4---2/4-0-------------------|
G|----4---4-------------4---4-------------------------|
D|----------------------------------------------------|
A|----------------------------------------------------|
E|----------------------------------------------------|

 B           F#
Vem, Óh meu bem
           E
Não chore não
                   B
Eu vou cantar pra você
 B           F#
Vem, Óh meu bem
           E
Não chore não
                   B
Eu vou cantar pra você

 B           F#
Vem, Óh meu bem
           E
Não chore não
                   B
Eu vou cantar pra você
 B           F#
Vem, Óh meu bem
           E
Não chore não
                   B
Eu vou cantar pra você

HERRAMIENTAS ACORDESWEB:


LETRA DE LA CANCIÓN:

Ver la letra sola (sin acordes)

OTRAS VERSIONES DE LA MISMA CANCIÓN:

Ver. 2 Ver. 3 Ver. 4 Ver. 5 Ver. 6

DESCARGAR PDF / IMPRIMIR CANCIÓN



ACORDES PARA GUITARRA

PIANO UKELELE
B
F#
E
C#m


TOP 20: Las más tocadas de Maskavo


Toca una Canción al Azar de Maskavo

Acordes

Cerrar
B
F#
E
C#m

09.05


174