Amo
Miguel Bosé
Acordes

Subida por lilidiaz



Otras Versiones
Ver. 2

ENTRENA TU OÍDO MUSICAL CON ESTE JUEGO. ¿QUÉ ACORDE ES?. CLIC AQUÍ PARA JUGAR

Cambiar Cifrado
Americano Latino

Cambiar Tonalidad
-1 +1

Partir Pantalla Imprimir FAQ

Ver solo la LETRA

+A
-A
LETRA CON ACORDES
Bm       F#m
Amo cada cosa que nada
Bm F#m
amo cada cosa que vuela
Bm F#m
amo cada idea y pensamiento
Bm F#m
cada sendero aunque acabe en un desierto

Bm F#m
Amo el soplo fuerte del viento
Bm F#m
amo el invierno que cae lento
Bm F#m
amo ese proceso que convierte
Bm F#m
lo original en algo este, muy diferente




Bm - F#m Bm - F#m Bm - F#m Bm - F#m
1.-----------------------------------------------------------
2.----0---------0-2---------0--------------------------------
3.------2---------------------2-------2----------------------
4.--4---------4-----------4---------------4------------------
5.-----------------------------------------------------------
6.-----------------------------------------------------------


Bm F#m
Amo el canto de las ballenas
Bm F#m
amo las medias lunas y llenas
Bm F#m
amo el horizonte e imaginarme
Bm F#m
que abro las alas y hasta el poder volarme


G D
Y amo aquello, que no veo, pero intuyo
A Em
amo las cosas que no entiendo y todo incluyo
G D
amo creer querer saber y preguntarme
A Em
como hace el sol para caerse tras los mares

y nunca ahogarse ...

Bm - F#m Bm - F#m Bm - F#m Bm - F#m
1.-----------------------------------------------------------
2.----0---------0-2---------0--------------------------------
3.------2---------------------2-------2----------------------
4.--4---------4-----------4---------------4------------------
5.-----------------------------------------------------------
6.-----------------------------------------------------------


Bm F#m
Amo la fiebre que en los amores
Bm F#m
rapta y habita los corazones
Bm F#m
amo las paredes silenciosas
Bm F#m
para clavar en ella viejas nuevas cosas
Bm F#m
Amo pensar que cada palabra
Bm F#m
esconde un poderoso misterio
Bm F#m
amo en general y sin fronteras
Bm F#m
lo inexplicable y todo lo que me supera



G D
Y amo aquello, que no veo, pero intuyo
A Em
amo las cosas que no entiendo y todo incluyo
G D
amo creer querer saber y preguntarme
A Em
como hace el sol para caerse tras los mares

y nunca ahogarse


G D
Amo todo aquello que no se
A Em
amo todo lo que no se ve
G
y pregúntame
D
Amo todo aquello que no se
A Em
amo todo lo que no se ve

y preguntarme


G D
Amo todo aquello que no se
A Em
amo todo lo que no se ve

y pregúntame


G D A Em
1.------3---------2---------------0------------0-------
2.----3---3-----3---3-----------2---2--------0---0-----
3.--0---------2---------------2------------0-----------
4.-----------------------------------------------------
5.-----------------------------------------------------
6.-----------------------------------------------------
y preguntarme



G A
Y amo aquello, que no veo, pero intuyo
D Em
amo las cosas que no entiendo y todo incluyo
G A
amo creer querer saber y preguntarme
D Em
como hace el sol para caerse tras los mares
G
y nunca ahogarse


ACORDES PARA GUITARRA

PIANO UKELELE
Bm
F#m
G
D
A
Em


COMENTARIOS

Aún no hay comentarios,

¡escribe el primero!

Para hacer una pregunta o dejar un comentario sobre esta canción, debes estar LOGUEADO

Las canciones más tocadas de Miguel Bosé

Toca una Canción al Azar de Miguel Bosé
Bm
F#m
G
D
A
Em

Nuestro servidor se demoró 0.07 segundos en generar esta página. Eso fue realmente muy rápido!