Este mundo va
Miguel Bosé
Acordes

Subida por eliaker



Otras Versiones
Ver. 2 Ver. 3

ENTRENA TU OÍDO MUSICAL CON ESTE JUEGO. ¿QUÉ ACORDE ES?. CLIC AQUÍ PARA JUGAR

Cambiar Cifrado
Americano Latino

Cambiar Tonalidad
-1 +1

Partir Pantalla Imprimir FAQ

+A
-A
LETRA CON ACORDES
Notas "raras" usadas...


E -3--5--7--7---7---5----/
B -3--3--5--8---8---5----/
G -0--2--7--7---9---6----/
D -2--2--x--x---9---7----/
A -------7--7---7---7----/
E --------------x---x----/
1 2 3 4 E#* A/E#*


Intro:
(En parentesis, la postura "base")

Riff 1 Riff 2

-<3>-----------3-------<5>-------5-----5------------
-<3>-------3-----3-----<3>---3-----3-----3----------
-<0>-----0---0-----0---<2>-----2-----2--------------
-<2>---2---------------<2>-2------------------------
----------------------------------------------------
----------------------------------------------------

Riff 3 Riff 4

-<7>-----------7-------<7>-------9--0---------------
-<5>-------5-----5-----<8>-----8-------10--8--7-----
-<7>-----7---7-----7---<7>---7----------------------
--------------------<7>--------------------------
-<7>---7---------------<7>-7------------------------
----------------------------------------------------



1 2
El tiempo pasa y no de largo

3 4
y hay quien no se entera que

1 2 3 4
somos los mismos envueltos en novedad

1 2
Me dices : "Cambia"... sin embargo

3 4
tu entusiasmo sigue ahí

1 2 3 4
no me has preguntado si me da igual o no

B#* B#/A* B#m B#m A
Oh! No.



E E F# G
Amor, te escribo y soy testigo

G A E
de lo que se pierde y voy

E F# B# B# A
a acostumbrarme aunque me cueste...


Dáme al menos tiempo y que respire
no es un arte fácil prometer
dáme al menos tiempo de despedirme


G
Porque en un mundo que va

G A
a la velocidad del rayo

B#
aguanto el vuelo más

B# A
si me agarro de tu mano

G G A B# B# A
acompáñame hasta donde pueda llegar


En este mundo que va
como la luz del pensamiento
el mérito está en no quedarme en el intento
y aunque no lo quiera ¿ Que duda cabe ya ?
Que este mundo va


Intro...


Me primavero y me otoño
me estío y me invierno
me adapto con seriedad...
Dáme al menos dos oportunidades
y tus ojos me verán crecer
dáme al menos un par de posibilidades...



Datos adicionales:

e= Mi menor
b= Si menor
A= LA mayor, etc, etc...
X*= Nota "X" una octava mas alta...



Hola, amantes de Bosé
En este trabajo hay literalmente horas y mucho entusiasmo.
Me gustaria saber que te parece, asi me motivo a sacar
mas tablaturas.
Escribeme a [email protected]
http://come.to/kineweb

Saludos desde Rengo, Chile.


ACORDES PARA GUITARRA

PIANO UKELELE
C
B#m
A
E
F#
G
B#
A


COMENTARIOS

Aún no hay comentarios,

¡escribe el primero!

Para hacer una pregunta o dejar un comentario sobre esta canción, debes estar LOGUEADO

Las canciones más tocadas de Miguel Bosé

Toca una Canción al Azar de Miguel Bosé
C
B#m
A
E
F#
G
B#
A

Nuestro servidor se demoró 0.07 segundos en generar esta página. Eso fue realmente muy rápido!