Si puedo volverte a ver
Miguel Bosé
Acordes

Subida por Luisn



Otras Versiones
Ver. 2

ENTRENA TU OÍDO MUSICAL CON ESTE JUEGO. ¿QUÉ ACORDE ES?. CLIC AQUÍ PARA JUGAR

Cambiar Cifrado
Americano Latino

Cambiar Tonalidad
-1 +1

Partir Pantalla Imprimir FAQ

+A
-A
LETRA CON ACORDES
INTRO:
e|---------0-----------0-----------0----|
B|-------7---7-------5---5-------3---3--|
G|-----7-------7---6-------6---4-------4|
D|---0-----------0-----------0----------|
A|--------------------------------------|
E|--------------------------------------|

e|---------0-----------0-----------3----|
B|-------7---7-------5---5-------3---3--|
G|-----7-------7---6-------6---4-------4|
D|---0-----------0-----------0----------|
A|--------------------------------------|
E|--------------------------------------|

e|---------0-----------0-----------5----|
B|-------7---7-------5---5-------3---3--|
G|-----7-------7---6-------6---4-------4|
D|---0-----------0-----------0----------|
A|--------------------------------------|
E|--------------------------------------|

e|---------0-----------0-----------7----------9/10-10|
B|-------7---7-------5---5-------8---8--------10---10|
G|-----7-------7---6-------6---7-------7----9--------|
D|---0-----------------------------------------------|
A|---------------------------------------------------|
E|---------------------------------------------------|

D G5
En cuanto puede se me escapa
D Am C9
y de momento lo que ha sido... fue
D G5
en esta ausencia que respiro
D Am C9
hay algo mas... y otras muchas por llover.

Bm F#m
¿como aprender a estar perdido?
Bm G D
¿como empezar a echar de menos
A Bm
cuando estreno el corazón?
F#m
Y si es mi suerte que sea fuerte
G A
que me queme todo entero y de una vez

CORO:

D A Bm F#m
Y cuando quieras te lo escribo,
G D A
sin un descanso mientras que hay una pared
D A Bm F#m
en pleno cielo y por si acaso en el olvido
G Bm
que me aguanto lo que muero
G A Bm A
SI puedo volverte A ver he y yeee...

e|---------0-----------0-----------0----|
B|-------7---7-------5---5-------3---3--|
G|-----7-------7---6-------6---4-------4|
D|---0-----------0-----------0----------|
A|--------------------------------------|
E|--------------------------------------|

e|---------0-----------0-----------7----------9/10-10|
B|-------7---7-------5---5-------8---8--------10---10|
G|-----7-------7---6-------6---7-------7----9--------|
D|---0-----------0-----------0-----------------------|
A|---------------------------------------------------|
E|---------------------------------------------------|

VERSO 2:

D G5
En cuanto puede se me escapa
D Am C9
Del aire cuelgan mis suspiros... y es
D G5
asi de simple, asi de grande
D Am C9
es algo que...no consigo no querer

Bm F#m
Y no me cabe mas paciencia
Bm G D A Bm
estoy cansado de morderme el corazón, no puedo mas
F#m
si es el destino que me rompe a estas alturas,
G A
que me parta de una vez

CORO:

D A Bm F#m
Y cuando quieras te lo escribo,
G D A
sin un descanso mientras que hay una pared
D A Bm F#m
en pleno cielo y por si acaso en el olvido
G Bm
que me aguanto lo que muero
G A Bm
Si puedo volverte a ver

Bm G Bm
...En cada mirada se me va
A F#m
cada abrazo un laberinto que...nunca desharé
G
cada silencio, eternidad
Bm A (silencio)
en cada noche hay un secreto que me da

CORO

D A Bm F#m
Y cuando quieras te lo escribo,
G Bm A
sin un descanso mientras que hay una pared
D A Bm F#m
en pleno cielo y por si acaso en el olvido
G Bm
que me aguanto lo que muero
G A Bm
Si puedo volverte a ver
A G
Si puedo volverte a ver
D A (intro)
Si puedo volverte a ver

CORO:

D A G A
Si puedo volverte a ver...

E A D G B E
A = 0 0 3 3 3 0
Am = 0 0 3 3 2 0
Bm = 2 2 4 4 3 2
C9 = X 3 2 0 3 0
D = 0 0 0 2 3 2
F#m = 2 4 4 2 2 2
G = 3 5 5 4 3 3
G5 = 3 2 0 0 3 3


ACORDES PARA GUITARRA

PIANO UKELELE
D
G5
Am
C9
Bm
F#m
G
A
B
E
B


COMENTARIOS

Aún no hay comentarios,

¡escribe el primero!

Para hacer una pregunta o dejar un comentario sobre esta canción, debes estar LOGUEADO

Las canciones más tocadas de Miguel Bosé

Toca una Canción al Azar de Miguel Bosé
D
G5
Am
C9
Bm
F#m
G
A
B
E
B

Nuestro servidor se demoró 0.1 segundos en generar esta página. Eso fue realmente muy rápido!