Si tu no vuleves
Miguel Bosé
Acordes

Subida por yuchanxd



Otras Versiones

ENTRENA TU OÍDO MUSICAL CON ESTE JUEGO. ¿QUÉ ACORDE ES?. CLIC AQUÍ PARA JUGAR

Cambiar Cifrado
Americano Latino

Cambiar Tonalidad
-1 +1

Partir Pantalla Imprimir FAQ

+A
-A
LETRA CON ACORDES
VERSION CON SHAKIRA

G Bm
si tu no vuelves, se secaran todos los mares
C Bm
y esperare sin ti, tapiado al fondo de algún recuerdo
G Bm
si tu no vuelves, mi voluntad se hará pequeña
C Bm
me quedare aquí, junto a mi perro espiando horizontes

G Bm
e|-3/5--7-7-5---------7-7-5-------10-12----------|
b|------------8-7-8---------8-7-8-----------------|
g|------------------------------------------------|
D|------------------------------------------------|
A|------------------------------------------------|
E|------------------------------------------------|
G D
e|-3/5--7-7-5---------7-7-5-----------------------|
b|------------8-7-8---------8-7-8-----------------|
g|--------------------------------4--5--7---------|
D|------------------------------------------------|
A|------------------------------------------------|
E|------------------------------------------------|

G Bm
si tu no vuelves, no quedaran mas que desiertos
C Bm
y escuchare por si, algún latido le queda a esta tierra
G
que era tan serena cuando me querías,
Bm
había un perfume fresco que yo respiraba,
G D
era tan bonita, era así de grande y no tenia fin.

G Bm
y cada noche vendrá una estrella a hacerme compañía
G D
que te cuente como estoy, y sepas lo que hay
G Bm
dime amor, amor, amor estoy aquí no ves
G D
si no vuelves, no habrá vida, no se lo que haré

G Bm G D
e|-------------------------10~.--10---12---10----12---10---10--------|
b|----7---8---7---8---7------------12----12---12----12---12--8-10~.--|
g|--7---7---7---7---7---7--------------------------------------------|
D|-------------------------------------------------------------------|
A|-------------------------------------------------------------------|
E|-------------------------------------------------------------------|
G Bm
e|-3/5--7-7-5---------7-7-5-------10-12-------------------|
b|------------8-7-8---------8-7-8-------------------------|
g|--------------------------------------------------------|
D|--------------------------------------------------------|
A|--------------------------------------------------------|
E|--------------------------------------------------------|
G D
e|-3/5--7-7-5---------7-7-5-------------------------------|
b|------------8-7-8---------8-7-8-------------------------|
g|--------------------------------4--5--7-----------------|
D|--------------------------------------------------------|
A|--------------------------------------------------------|
E|--------------------------------------------------------|


G Bm
si tu no vuelves, no habrá esperanza, ni habrá nada
C Bm
caminare sin ti, con mi tristeza bebiendo lluvia
G
que era tan serena cuando me querías
Bm
había un perfume fresco que yo respiraba,
G D
era tan bonita, y era así de grande y no tenia fin.

(Se hace un cambio en el ritmo, se rasguea solo hacia abajo pero lento)
G Bm
y cada noche vendrá una estrella a hacerme compañía
G D
que te cuente como estoy, y sepas lo que hay
G Bm
dime amor, amor, amor estoy aquí no ves
G D
si no vuelves, no habrá vida, no se lo que haré

(Regresa al coro normal)
G Bm
y cada noche vendrá una estrella a hacerme compañía
G D
que te cuente como estoy, y sepas lo que hay
G Bm
dime amor, amor, amor estoy aquí no ves
G D
si no vuelves, no habrá vida, no se lo que haré.


(lo que sigue se repite 3 veces, todo se toca junto)
No se lo que haré(x2), Si no vuelves no habrá vida, no se lo que haré

G Bm G D
e|-------------------------10~.--10---12---10----12---10---10--------|
b|----7---8---7---8---7------------12----12---12----12---12--8-10~.--|
g|--7---7---7---7---7---7--------------------------------------------|
D|-------------------------------------------------------------------|
A|-------------------------------------------------------------------|
E|-------------------------------------------------------------------|

(y este ultimo arreglo se hace una vez mas y termina con G)


ACORDES PARA GUITARRA

PIANO UKELELE
G
Bm
C
D


COMENTARIOS

Aún no hay comentarios,

¡escribe el primero!

Para hacer una pregunta o dejar un comentario sobre esta canción, debes estar LOGUEADO

Las canciones más tocadas de Miguel Bosé

Toca una Canción al Azar de Miguel Bosé
G
Bm
C
D

Nuestro servidor se demoró 0.05 segundos en generar esta página. Eso fue realmente muy rápido!