Sol Forastero
Miguel Bosé
Acordes

Subida por Anny15



Otras Versiones
Ver. 2 Ver. 3 Ver. 4

Cambiar Cifrado
Americano Latino

Cambiar Tonalidad
-1 +1

Partir Pantalla Imprimir FAQ

+A
-A

LETRA Y ACORDES


Intro(X2):

-Gtrra. Eléctrica:

Em B
1. -12-12-12-12-12-12-12-12-12-|-11-11-11-11-11-11-11-11-11-|
2. -12-12-12-12-12-12-12-12-12-|-12-12-12-12-12-12-12-12-12-|
3. -12-12-12-12-12-12-12-12-12-|-11-11-11-11-11-11-11-11-11-|
4. ----------------------------|----------------------------|
5. ----------------------------|----------------------------|
6. ----------------------------|----------------------------|

Bm A
1. -10-10-10-10-10-10-10-10-10-|--9--9--9--9--9--9--9--9--9-|
2. -12-12-12-12-12-12-12-12-12-|-10-10-10-10-10-10-10-10-10-|
3. -10-10-10-10-10-10-10-10-10-|--9--9--9--9--9--9--9--9--9-|
4. ----------------------------|----------------------------|
5. ----------------------------|----------------------------|
6. ----------------------------|----------------------------|

-Sax:

1. --5------7------|--5--------------|
2. -----5------7---|-----5--3--5-----|
3. ----------------|--------------2--|
4. ----------------|-----------------|
5. ----------------|-----------------|
6. ----------------|-----------------|

*Verso:


Em
Tu que nunca quisiste,
B
oír hablar de América,
Bm A
ahora vas y dices que te quieres ir pa’allá.

Em
Si ni siquiera sabes,
B
dónde esta California,
Bm
me cuentas que ahora mueres por
A
ponerte morena allá.

Em B
Bajo un sol forastero,
1. -12-12-12-12-12-12-12-12-12-|-11-11-11-11-11-11-11-11-11-|
2. -12-12-12-12-12-12-12-12-12-|-12-12-12-12-12-12-12-12-12-|
3. -12-12-12-12-12-12-12-12-12-|-11-11-11-11-11-11-11-11-11-|
4. ----------------------------|----------------------------|
5. ----------------------------|----------------------------|
6. ----------------------------|----------------------------|
Bm A
bajo un sol forastero.
1. -10-10-10-10-10-10-10-10-10-|--9--9--9--9--9--9--9--9--9-|
2. -12-12-12-12-12-12-12-12-12-|-10-10-10-10-10-10-10-10-10-|
3. -10-10-10-10-10-10-10-10-10-|--9--9--9--9--9--9--9--9--9-|
4. ----------------------------|----------------------------|
5. ----------------------------|----------------------------|
6. ----------------------------|----------------------------|

-Sax:

1. --5------7------|--5--------------|
2. -----5------7---|-----5--3--5-----|
3. ----------------|--------------2--|
4. ----------------|-----------------|
5. ----------------|-----------------|
6. ----------------|-----------------|


Em
Y ahora de repente,
B
te pones camiseta New York,
1. ------------------------|
2. -3h5-0h2----------------|
3. ---------0h2--------0---|
4. -------------1h2--2---2-|
5. ------------------------|
6. ------------------------|
Bm A
y no tienes idea de qué tiempo hará.


*Puente:

Em
Bajo un sol forastero,
B (riff) riff: C/Dimtorción
un forastero seré 1. ------------------------|
Bm 2. -3h5-0h2----------------|
bajo un cielo negro, 3. ---------0h2--------0---|
A 4. -------------1h2--2---2-|
extranjero hablaré. 5. ------------------------|
6. ------------------------|


*Coro:

Em
Pero que mito, hey!! qué barras ni que estrellas,
B
de qué me hablas chica, mira que te ciegas,
Bm
pero qué libertad, qué clase de cultura,
A
pero qué gringo mandingo, ni que polla dura.


Em
Pero qué presidente, ni qué rascacielos,
B
pero qué sociedad que vive sin camelos,
Bm
pero qué coño dices, mira cómo comes,
A
que si que ve, ve, ve, de donde dan las tomes.




Em B
Yeh eehhhh, (Forastero)
Bm A
(Forastero)



Yeh eehhhh...

Em B
1. -12-12-12-12-12-12-12-12-12-|-11-11-11-11-11-11-11-11-11-|
2. -12-12-12-12-12-12-12-12-12-|-12-12-12-12-12-12-12-12-12-|
3. -12-12-12-12-12-12-12-12-12-|-11-11-11-11-11-11-11-11-11-|
4. ----------------------------|----------------------------|
5. ----------------------------|----------------------------|
6. ----------------------------|----------------------------|

Bm A
1. -10-10-10-10-10-10-10-10-10-|--9--9--9--9--9--9--9--9--9-|
2. -12-12-12-12-12-12-12-12-12-|-10-10-10-10-10-10-10-10-10-|
3. -10-10-10-10-10-10-10-10-10-|--9--9--9--9--9--9--9--9--9-|
4. ----------------------------|----------------------------|
5. ----------------------------|----------------------------|
6. ----------------------------|----------------------------|


-Sax:

1. --5------7------|--5--------------|
2. -----5------7---|-----5--3--5-----|
3. ----------------|--------------2--|
4. ----------------|-----------------|
5. ----------------|-----------------|
6. ----------------|-----------------|


*Verso:

Em
Justo ayer me decías,
B
mañana iremos al mar,
Bm
explica entonces que es esto
A
de un vuelo intercontinental.


Em
Cariño hablemos despacio,
B
la vida allá es triste,
Bm
se duerme poco, se gasta mucho,
A
y se come ese pan de alpiste.


*Puente:

Em
Bajo un sol forastero,
1. -12-12-12-12-12-12-12-12-12-|
2. -12-12-12-12-12-12-12-12-12-|
3. -12-12-12-12-12-12-12-12-12-|
4. ----------------------------|
5. ----------------------------|
6. ----------------------------|
B (riff)
un forastero seré
1. -11-11-11-11-11-11-11-11-11-|
2. -12-12-12-12-12-12-12-12-12-|
3. -11-11-11-11-11-11-11-11-11-|
4. ----------------------------|
5. ----------------------------|
6. ----------------------------|
Bm
bajo un cielo negro,
1. -10-10-10-10-10-10-10-10-10-|
2. -12-12-12-12-12-12-12-12-12-|
3. -10-10-10-10-10-10-10-10-10-|
4. ----------------------------|
5. ----------------------------|
6. ----------------------------|
A
extranjero hablaré.
1. --9--9--9--9--9--9--9--9--9-|
2. -10-10-10-10-10-10-10-10-10-|
3. --9--9--9--9--9--9--9--9--9-|
4. ----------------------------|
5. ----------------------------|
6. ----------------------------|



*Coro:

Em
Pero que mito, hey!! qué barras ni que estrellas,
B
de qué me hablas chica, mira que te ciegas,
Bm
pero qué libertad, qué clase de cultura,
A
pero qué gringo mandingo, ni que polla dura.


Em
Pero qué presidente, ni qué rascacielos,
B
pero qué sociedad que vive sin camelos,
Bm
pero qué coño dices, mira cómo comes,
A
que si que ve, ve, ve, de donde dan las tomes.


Em B
Yeh eehhhh, (Forastero)
Bm A
(Forastero)


Em B
Yeh ehhhh, [Forastero]
1. -12-12-12-12-12-12-12-12-12-|-11-11-11-11-11-11-11-11-11-|
2. -12-12-12-12-12-12-12-12-12-|-12-12-12-12-12-12-12-12-12-|
3. -12-12-12-12-12-12-12-12-12-|-11-11-11-11-11-11-11-11-11-|
4. ----------------------------|----------------------------|
5. ----------------------------|----------------------------|
6. ----------------------------|----------------------------|

Bm A
Bajo un sol forastero, bajo un sol forastero, bajo un sol, bajo un sol forastero,
1. -10-10-10-10-10-10-10-10-10-|--9--9--9--9--9--9--9--9--9-|
2. -12-12-12-12-12-12-12-12-12-|-10-10-10-10-10-10-10-10-10-|
3. -10-10-10-10-10-10-10-10-10-|--9--9--9--9--9--9--9--9--9-|
4. ----------------------------|----------------------------|
5. ----------------------------|----------------------------|
6. ----------------------------|----------------------------|


Em B
Yeh ehhhh, [Forastero]
1. -12-12-12-12-12-12-12-12-12-|-11-11-11-11-11-11-11-11-11-|
2. -12-12-12-12-12-12-12-12-12-|-12-12-12-12-12-12-12-12-12-|
3. -12-12-12-12-12-12-12-12-12-|-11-11-11-11-11-11-11-11-11-|
4. ----------------------------|----------------------------|
5. ----------------------------|----------------------------|
6. ----------------------------|----------------------------|

Bm A
(Forastero)
1. -10-10-10-10-10-10-10-10-10-|--9--9--9--9--9--9--9--9--9-|
2. -12-12-12-12-12-12-12-12-12-|-10-10-10-10-10-10-10-10-10-|
3. -10-10-10-10-10-10-10-10-10-|--9--9--9--9--9--9--9--9--9-|
4. ----------------------------|----------------------------|
5. ----------------------------|----------------------------|
6. ----------------------------|----------------------------|


Em B
Yeh ehhhh, [Forastero]
1. -12-12-12-12-12-12-12-12-12-|-11-11-11-11-11-11-11-11-11-|
2. -12-12-12-12-12-12-12-12-12-|-12-12-12-12-12-12-12-12-12-|
3. -12-12-12-12-12-12-12-12-12-|-11-11-11-11-11-11-11-11-11-|
4. ----------------------------|----------------------------|
5. ----------------------------|----------------------------|
6. ----------------------------|----------------------------|

Bm A
(Forastero)
1. -10-10-10-10-10-10-10-10-10-|--9--9--9--9--9--9--9--9--9-|
2. -12-12-12-12-12-12-12-12-12-|-10-10-10-10-10-10-10-10-10-|
3. -10-10-10-10-10-10-10-10-10-|--9--9--9--9--9--9--9--9--9-|
4. ----------------------------|----------------------------|
5. ----------------------------|----------------------------|
6. ----------------------------|----------------------------|
(Fade out)


ACORDES PARA GUITARRA

PIANO UKELELE
Em
B
Bm
A



COMENTARIOS

Aún no hay comentarios,

¡escribe el primero!

Escribe un comentario o pregunta sobre esta canción


Toca una Canción al Azar de Miguel Bosé
Más canciones de Miguel Bosé

  • Amapola bésame
  • Olvídame tú
  • Estaré
  • Mi libertad
  • No hay un corazón que valga la pena
  • Corazones
  • Duende
  • Nena
  • Señor Padre
  • De la mano de Dios
  • Quieres América
  • Causas y azares
  • Azul de Louïe
  • La belleza
  • Vagabundo
  • Don diablo
  • Hacer por hacer
  • Sólo Sí
  • El Hijo Del Capitan Trueno
  • Por Ti
  • Ver todas las canciones de Miguel Bosé

    Em
    B
    Bm
    A

    Nuestro servidor se demoró 0.27 segundos en generar esta página. Que velocidad!