Sólo Sí
Miguel Bosé
Acordes

Subida por Albano



Otras Versiones

ENTRENA TU OÍDO MUSICAL CON ESTE JUEGO. ¿QUÉ ACORDE ES?. CLIC AQUÍ PARA JUGAR

Cambiar Cifrado
Americano Latino

Cambiar Tonalidad
-1 +1

Partir Pantalla Imprimir FAQ

Ver solo la LETRA

+A
-A
LETRA CON ACORDES
    D            A           F#m           A
1.--------------------------------------------------------------
2.-----2-3-2-------2-3-2--------2-3-2--------2-3-2--------------
3.---2-------2---2-------2----2-------2----2-------2------------
4.-0------------------------------------------------------------
5.--------------0------------------------0----------------------
6.--------------------------2-----------------------------------


D A F#m A
1.----------------------0-------0-------------------------------
2.-----------0-2----------2-------0-----------------------------
3.----2----2-----2-----------------------2----------------------
4.--2----2-----------------------------2------------------------
5.--------------------------------------------------------------
6.--------------------------------------------------------------


D A
Sopla un viento ligero
F#m A
Tibio y lleno de paz
D A F#m A
Bajo un cielo infinito que cae al mar
D A
Y la noche es tranquila
F#m A
Como nunca sentí
D A F#m A
Y si cierro los ojos sé que acabaré

Pensando en ti...

D A F#m A D A F#m A
1.--------------------0-------0--------------------0---0----5---
2.-----------0-2--------2-------0-----------0-2------2---0------
3.----2----2-----2--------------------2---2-----2---------------
4.--2----2--------------------------2---2-----------------------
5.--------------------------------------------------------------
6.--------------------------------------------------------------


D A
Y hace nada fue ayer justo aquí
F#m A
Me decías verás
D A F#m A
Esto ya es para siempre juro lo será…



D E
Solo sí
F#m A
Hace tiempo que estoy aquí
D E
Hace mucho estoy solo sí
A
Respirando a pesar de ti

D E
Hace siglos que sigo aquí
F#m A
Hace tiempo estoy solo sí
D E
Aleteando frenético
A
Sobrevivo a pesar de ti


D E
Hace mucho que sigo aquí
F#m A
Hace un río de lágrimas
D E
Y en las culpas mas íntimas
A
El amor se me va…


D A F#m A D A F#m A
1.--------------------0-------0--------------------0---0----5---
2.-----------0-2--------2-------0-----------0-2------2---0------
3.----2----2-----2--------------------2---2-----2---------------
4.--2----2--------------------------2---2-----------------------
5.--------------------------------------------------------------
6.--------------------------------------------------------------


D A
Y no sé si conviene
F#m A
Hacer del corazón
D A F#m A
Un refugio sincero, sí o no?
D A
Y ya puestos si te he de ser sincero
F#m A
He de confesarte
D A F#m A
Esperaba algo nuevo un no sé qué…





D E
Solo sí
F#m A
Hace tiempo que estoy aquí
D E
Hace mucho estoy solo sí
A
Respirando a pesar de ti

D E
Hace siglos que sigo aquí
F#m A
Hace tiempo estoy solo sí
D E
Aleteando frenético
A
Sobrevivo a pesar de ti


D E
Hace mucho que sigo aquí
F#m A
Hace un río de lágrimas
D E
Y en las culpas mas íntimas
A
El amor se me va…


D E
Hace mucho que sigo aquí
F#m A
Hace un río de lágrimas
D E
Y en las culpas mas íntimas
A
El amor se me va…


ACORDES PARA GUITARRA

PIANO UKELELE
D
A
F#m
E


COMENTARIOS

Aún no hay comentarios,

¡escribe el primero!

Para hacer una pregunta o dejar un comentario sobre esta canción, debes estar LOGUEADO

Las canciones más tocadas de Miguel Bosé

Toca una Canción al Azar de Miguel Bosé
D
A
F#m
E

Nuestro servidor se demoró 0.08 segundos en generar esta página. Eso fue realmente muy rápido!