Tú mi salvación

Miguel Bosé

Acordes

Subida por Nico1974


Más Versiones
Ver. 2

Cambiar Cifrado
Americano Latino

Cambiar Tonalidad
-1 +1

Partir Pantalla Imprimir FAQ

+A
-A


Ver solo la LETRA
 G    C      Em        D     C
1.--------------------------------
2.--------------------------------
3.-----------0----0---------------
4.-------0-----4----0---0---------
5.-0-2-3------------------3--3-2--
6.--------------------------------

G Am Em Am G D G
1.-------------------------------------------------------------
2.-----------1-0-1-------0-------------------------------------
3.-----------------2---2---0-------0---0-----------------------
4.-----0-2---------------------0-----4-------------------------
5.-2-3---------------------------3-----------------------------
6.-------------------------------------------------------------



G C Em D C
Así fue como todo empezó
G Am Em Am G D G
Tu decías que pasará, para que volverlo a intentar
G C Em D C
Y poco a poco entraste en mi dulcemente
G Am Em Am G D G
Siento que esta vez perdí, ya no sé, vivir sin ti

Am-Em G-C
Tu... Tu...
D-Em G-C
Tu... Tu...
G D G
Mi salvación

G C Em D C
1.--------------------------------
2.--------------------------------
3.-----------0----0---------------
4.-------0-----4----0---0---------
5.-0-2-3------------------3--3-2--
6.--------------------------------

G Am Em Am ´ C
1.-------------------------------------------------------------
2.-----------1-0-1-------0-------------------------------------
3.-----------------2---2---0-----------------------------------
4.-----0-2----------------------------------------------------
5.-2-3---------------------------------------------------------
6.-------------------------------------------------------------



D Am
Todo lo que siento, todo lo que digo
G C
Pasa por el filtro de tu mano
D C
Todo lo que veo, todo al rededor
G Em
Lleva tu nombre escondido


Am
Tu modo de hablar, el olor de un perfume
Em
La brisa del mar, cuanto esconde lo que amo
C G
El aire que se calla para hacerme escuchar tu voz


Am-Em G-C
Tu... Tu...
D-Em G-C
Tu... Tu...
G D G
Mi salvación

G C Em D C
1.--------------------------------
2.--------------------------------
3.-----------0----0---------------
4.-------0-----4----0---0---------
5.-0-2-3------------------3--3-2--
6.--------------------------------




G Am Em Am G D G
1.-------------------------------------------------------------
2.-----------1-0-1-------0-------------------------------------
3.-----------------2---2---0-------0---0-----------------------
4.-----0-2---------------------0-----4-------------------------
5.-2-3---------------------------3-----------------------------
6.-------------------------------------------------------------


G C Em D C
Toda una vida vamos ya, juntos, juntos
G Am Em Am G D G
Nadie podría ocupar, tu lugar, tu lugar en mi corazón
G C Em D C
Quisiera darte algo especial tuyo, tuyo
G Am Em Am G D G
Por eso hice esta canción, para decirte cuanto cabe mi amor


D Am
Todo lo que siento, todo lo que digo
G C
Pasa por el filtro de tu mano
D C
Todo lo que veo, todo al rededor
G Em
Lleva tu nombre escondido


Am
Tu modo de hablar, el olor de un perfume
Em
La brisa del mar, cuanto esconde lo que amo
C G
El aire que se calla para hacerme escuchar tu voz


Am-Em G-C
Tu... Tu...
D-Em G-C
Tu... Tu...
G D G
Mi salvación

G C Em D C
1.-----------------------------------
2.-----------------------------------
3.-----------0----0------------------
4.-------0-----4----0---0------------
5.-0-2-3------------------3--3-2-0-2-
6.-----------------------------------


G C Em D C
Así fue como todo empezó
G Am Em
Una bella historia de amor
Am G D C G
Entre tú y yo, que nunca acabo


ACORDES PARA GUITARRA

PIANO UKELELE
G
C
Em
D
Am


Las más tocadas de Miguel Bosé

G
C
Em
D
Am