Frutos do Cerrado (Acordes)

Músicas Infantis

Subida por Deyby71

Compartir


Imprimir FAQ
+A
-A

Texto

Desplazamiento

Transportador

Color de Fondo

Herramientas

TAMAÑO
TONALIDAD
+A
+ (F4)
-A
- (F2)
Nosso cerrado tem pequi tem mangaba e cajuí
E|-3---1---0---0---1---0--3---5--3-1--0---3--1--1--|  
B|-----------3--------------------------------------|
G|-----------------------------João Terranova-------|
D|--------------------------------------------------|
A|--------------------------------------------------|
E|--------------------------------------------------|

Nosso cerrado tem buriti e articum também 
E|-1--1--0---0--3--0--1---3--1--0---0--------------|
B|---------3----------------------3---------------|
G|--------------------------------------------------|
D|--------------------------------------------------|
A|--------------------------------------------------|
E|--------------------------------------------------|

Nosso cerrado tem cajá tem pitomba e açaí
E|-3---1---0---0--1---0--3---5--3-1--0---3--1--1------|  
B|-----------3---------------------------------------|
G|-----------------------------------------------------|
D|-----------------------------------------------------|
A|-----------------------------------------------------|
E|-----------------------------------------------------|

Nosso cerrado tem jatobá e imbu também
E|-1--1--0---0--3--0--1---3--1--0---0------------------|
B|---------3----------------------3---1------------|
G|-----------------------------------------------------|
D|-----------------------------------------------------|
A|-----------------------------------------------------|
E|-----------------------------------------------------|

HERRAMIENTAS ACORDESWEB:


LETRA DE LA CANCIÓN:

Ver la letra sola (sin acordes)

OTRAS VERSIONES DE LA MISMA CANCIÓN:

Ver. 2 Ver. 3 Ver. 4 Ver. 5 Ver. 6

DESCARGAR PDF / IMPRIMIR CANCIÓN



ACORDES PARA GUITARRA

PIANO UKELELE


TOP 20: Las más tocadas de Músicas Infantis