N (part. Anavitória) (Acordes)

Nando Reis

Subida por kdgr1991

Compartir


Imprimir FAQ
+A
-A

Texto

Desplazamiento

Transportador

Color de Fondo

Archivos

-A
+A
[Intro] G  Bm  Em
        G  Bm  Em

E|---------------------------------------------------|
B|---------------------------------------------------|
G|-------12-14b16-14b16~-------12-12------12---------|
D|-12h14-----------------12h14-------12h14-----------|
A|---------------------------------------------------|
E|---------------------------------------------------|

E|--------------------10-------------------------------|
B|-15b17r15~-12p10h12----12----------------------------|
G|-------------------------------12--------------------|
D|--------------------------12h14----------------------|
A|-----------------------------------------------------|
E|-----------------------------------------------------|

[Primeira Parte]

G              Bm       Em
  E agora, o que vou fazer?
            Am                 
Se os seus lábios ainda 
          Am7             D
Estão molhando os lábios meus?
      Am             Am7                 D
E as lágrimas não secaram com o sol que fez?

G               Bm            Em
  E agora como posso te esquecer?
           Am            Am7         D
Se o teu cheiro ainda está no travesseiro?
           Am            Am7         D
E o seu cabelo está enrolado no meu peito?

[Refrão]

C5(9)                        Bm
       Espero que o tempo passe
                        Em
Espero que a semana acabe
                            D
Pra que eu possa te ver de novo
C5(9)                      Bm
       Espero que o tempo voe
                    Em
Para que você retorne
                         A
Pra que eu possa te abraçar
         C5(9)
E te beijar
      G  Bm  Em
De novo

G  Bm  Em )

E|---------------------------------------------------|
B|----------------------------------------12---------|
G|-------12-14b16-14b16~-------12-12-12h14--14-------|
D|-12h14-----------------12h14-----------------------|
A|---------------------------------------------------|
E|---------------------------------------------------|

E|-----------12-15b17r15~----------------------------|
B|-15b17r15~-----------------------------------------|
G|---------------------------------------------------|
D|---------------------------------------------------|
A|---------------------------------------------------|
E|---------------------------------------------------|

[Segunda Parte]

G                   Bm           Em
  E agora, como eu passo sem te ver?
          Am
Se o seu nome está gravado no
      Am7          D
Meu braço como um selo?
        Am               Am7
Nossos nomes que tem o N
        D
Como um elo

G               Bm          Em
  E agora como posso te perder?
          Am           Am7
Se o teu corpo ainda guarda o
        D
Meu prazer?
         Am            Am7
E o meu corpo está moldado
       D
Com o teu?

[Refrão]

C5(9)                        Bm
       Espero que o tempo passe
                        Em
Espero que a semana acabe
                            D
Pra que eu possa te ver de novo
C5(9)                      Bm
       Espero que o tempo voe
                    Em
Para que você retorne
                         A
Pra que eu possa te abraçar

C5(9)                        Bm
       Espero que o tempo passe
                        Em
Espero que a semana acabe
                            D
Pra que eu possa te ver de novo
C5(9)                      Bm
       Espero que o tempo voe
                    Em
Para que você retorne
                         A
Pra que eu possa te abraçar

         C5(9)
E te beijar
      G  Bm  Em
De novo

[Solo Final] G  Bm  Em
             G  Bm  Em
             G  Bm  Em

E|---------------------------------------------------|
B|------------------------------------------15b17r15~|
G|-------12-14b16-14b16~-------12-12------12---------|
D|-12h14-----------------12h14-------12h14-----------|
A|---------------------------------------------------|
E|---------------------------------------------------|

E|--------------------10--------12p10-------------------|
B|-15b17r15~-12p10-12----12--12------12-15b17~-17r15p12-|
G|------------------------------------------------------|
D|------------------------------------------------------|
A|------------------------------------------------------|
E|------------------------------------------------------|

E|----------------------12--17b19--------------------|
B|---------------------------------------------------|
G|-14-14/16-------12-12------------------------------|
D|----------12h14------------------------------------|
A|---------------------------------------------------|
E|---------------------------------------------------|

Video Clip de N (part. Anavitória)


ACORDES PARA GUITARRA

PIANO UKELELE
G
Bm
Em
Am
Am7
D
Cadd9
A


TOP 20: Las más tocadas de Nando Reis


Toca una Canción al Azar de Nando Reis

Acordes

Cerrar
G
Bm
Em
Am
Am7
D
Cadd9
A

08.13

x

120