Something Beautiful (Acordes)

NEEDTOBREATHE

Subida por pulis2321

Compartir


Imprimir FAQ
+A
-A

Texto

Desplazamiento

Transportador

Color de Fondo

Archivos

-A
+A
Db Ab Db Gb Ab Db tuning Open Db tuning Basically DADGAD but a half step down.

If anyone knows the actual chords these would be let me know.
All credit goes to whoever created the tab that is on guitaretab.com
You will have to listen to the bridge to get it. It is a difficult rythm.
I havent actually taken the time to play these riffs but they seem accurate.
I just play the chords with emphasis like they do on the cd.

Intro
Db|--------0--------0------------0--------0-----|
Ab|----------0---------------------0--------0---|
Gb|------------7---------------------7----------|
Db|-----7--------------------7------------------|
Ab|---5-------------------5------------5--------|
Db|--------------5-----0------------------------|

Verse
Db|--------0--------0------------0--------0-----|
Ab|----------0---------------------0--------0---|
Gb|------------7---------------------7----------|
Db|-----7--------------------7------------------|
Ab|---5-------------------5------------5--------|
Db|--------------5-----0------------------------| 3x

Db|--------0--------0------0--------0-----|
Ab|----------0--------0------0--------0---|
Gb|------------7---------------7----------|
Db|---------------------------------------|
Ab|---------------------------------------|
Db|----7----------7-----5-----------------|

   DbAbDbGbAbDb Please note these are not the actual chords, i am using them because i 
to call them something.
C  0-5-7-7-0-0-|
F  5-x-7-7-0-0-|
G  7-x-7-7-0-0-|
B  0-2-4-4-0-0-|
A2 0-0-2-2-0-0-|
E  0-7-7-7-0-0-|


Verse1
C                  F     C
In your ocean, I'm ankle deep
C                         F    C
I feel the waves crashin' on my feet
C                        F       C
It's like I know where I need to be
            G                       F
But I can't figure out, yeah I can't figure out

C                        F       C
Just how much air I will need to breathe
C                     F    C
When your tide rushes over me
C                       F      C
There's only one way to figure out
         G                      F
Will you let me drown, will you let me drown

Chorus1
C                   F
Hey now, this is my desire
                  B                    A2
Consume me like a fire, 'cause I just want something beautiful
    C                        F
To touch me, I know that I'm in reach
                    B                     A2
'Cause I am down on my knees, I'm waiting for something beautiful
C   F   B        A2               C
Oh, oh, oh-oh-oh something beautiful
C   F   B        A2               C   F C
Oh, oh, oh-oh-oh something beautiful

Verse2
And the water is risin' quick
And for years I was scared of it
We can't be sure when it will subside
So I won't leave your side, no I can't leave your side

Chorus2
C                   F
Hey now, this is my desire
                  B                    A2
Consume me like a fire, 'cause I just want something beautiful
    C                        F
To touch me, I know that I'm in reach
                    B                     A2
'Cause I am down on my knees, I'm waiting for something beautiful
C   F   B        A2               C
Oh, oh, oh-oh-oh something beautiful
C   E   B        A2               C   F C
Oh, oh, oh-oh-oh something beautiful

Bridge
Db|---0---|---0---0---|---0---|---0----0--|
Ab|---0---|---0---0---|---0---|---0----0--|
Gb|---7---|---12--11--|---7---|---14---12-|
Db|---x---|---x---x---|---x---|---x----x--|
Ab|---5---|---10--9---|---5---|---12---10-|
Db|---0---|-----------|---0---|-----------|
             In a daydream        I couldn't live like this

Db|---0---|---0---0---|---0---|---0---0--|
Ab|---0---|---0---0---|---0---|---0---0--|
Gb|---7---|---12--11--|---9---|---11--9--|
Db|---x---|---x---x---|---x---|---x---x--|
Ab|---5---|---10--9---|---7---|---9---7--|
Db|---0---|-----------|-------|----------|
             I wouldn't ...       Something Beautiful

In a daydream, I couldn't live like this
I wouldn't stop until I found something beautiful
When I wake up, And all I want, I have
You know it's still all I need something beautiful

Final Chorus same as Chorus2

HERRAMIENTAS ACORDESWEB:


LETRA DE LA CANCIÓN:

Ver la letra sola (sin acordes)

OTRAS VERSIONES DE LA MISMA CANCIÓN:

Ver. 2 Ver. 3 Ver. 4 Ver. 5

DESCARGAR PDF / IMPRIMIR CANCIÓN



ACORDES PARA GUITARRA

PIANO UKELELE
C
F
G
B
A2
E


TOP 20: Las más tocadas de NEEDTOBREATHE


Acordes

Cerrar
C
F
G
B
A2
E

10.41


270