La Vida Es (Acordes)

Nek

Subida por Juan

Compartir


Cambiar Cifrado
Americano Latino

Cambiar Tonalidad
-1 +1
Imprimir FAQ
+A
-A

Texto

Desplazamiento

Transportador

Color de Fondo

Archivos

-A
+A
INTRO

e--------0-----0------0------0------0----0-----0-------0---------------
B----------0-----0------0------0-------------0---0---------------------
G--1--2------2-----7/-----6/-----4/----2----2------2--46--1--2--1-----
D----------------------------------------------------------------------
A----------------------------------------------------------------------
E----------------------------------------------------------------------

e--------0-----0------0------0------0----0-----0-------0---------------
B----------0-----0------0------0-------------0---0---------------------
G-----2------2-----7/-----6/-----4/----2----2------2--46--------------
D--4-------------------------------------------------------------------
A----------------------------------------------------------------------
E----------------------------------------------------------------------


SOLO


        F#m          D                 A        E
e-------79~--------910~-------------79~------7~--------------------
B--45---------------------------45----------------------------------
G---------------------------------------------------------------------
D---------------------------------------------------------------------
A---------------------------------------------------------------------
E---------------------------------------------------------------------

        F#m          D                 A                   E
e-------79~--------910~-------------79~------910/9-----7~---------
B--45---------------------------45----------------------------------
G---------------------------------------------------------------------
D---------------------------------------------------------------------
A---------------------------------------------------------------------
E---------------------------------------------------------------------





        F#m*          D*
LA VIDA ES, TENERTE A TI
         A*        E*
PENSARTE Y SABERTE MIA
         F#m*         D*
NO TE BUSQUE, PERO TE VI
         A*           E*
Y COMPRENDI QUE TE QUERIA

                       


         F#m    D
Y NO HAY DU.....DAS
     A              E
MI AMOR YA NO TIENE CURA,
     F#m   D          A      (E)
NADA TEN...GO SI NO ESTAS




        F#m*     D*
LA VIDA ES, AMANECER
        A*             E*
Y DESPERTAR DONDE TU ESTES,
        F#m*       D*
QUEDATE AQUI ABRAZAME
          A*               E*
LO QUE ME PIDAS YO TE LO DARE




      F#m    D
EN TU CUER...PO 
   A                   E
SE CUMPLEN TODOS MIS SUEÑOS
         F#m  D
SI ESTOY VI...VO 
       A              E
ES POR TI




       F#m
AMOR INMENSO
D                        A
TU LA DUEÑA DE TODOS MIS BESOS
E                         F#m
CUANDO TU TE VAS SOY UN DESIERTO
D                      A            E
YO QUE ME BURLABA DEL AMOR Y YA ME VES
        F#m   D    A     E  (SOLO)
Y YA ME VES.........



        F#m*          D*
LA VIDA ES, TENERTE A TI
            A*                   E*
VER QUE TUS OJOS TIENEN GANAS DE MI,
       F#m*        D*
TU CORAZON ES MI PAIS
         A*                E*
SI ME FALTARAS NO SABRIA VIVIR




          F#m  D
YA NO HAY DU...DAS
    A               E
MI AMOR YA NO TIENE CURA
     F#m   D
NADA TEN...GO
           A           E
SI TU NO ESTAS




       F#m
AMOR INMENSO
D                        A
TU LA DUEÑA DE TODOS MIS BESOS
E                         F#m
CUANDO TU TE VAS SOY UN DESIERTO
D                      A            E
YO QUE ME BURLABA DEL AMOR Y YA ME VES



       F#m
AMOR INMENSO
D                         A
YO NO SE CONTAR CUANTO TE QUIERO
E                         F#m
SI TE VEO LEJANA SIENTO MIEDO
D                           A          E
ES PORQUE COMPRENDO QUE SIN TI NO SE VIVIR




HEY, DESDE QUE LLEGASTE YA NO HAY NADIE MAS
PORQUE, TE QUIERO TENER UNA Y OTRA VEZ, OTRA VEZ........



(SOLO)




      F#m   D
ME ACELE....RA
   A              E
EL RITMO DE TUS CADERAS
      F#m  D           A         (E)
Y POR E....SO  TE SEGUIRE.......




       F#m
AMOR INMENSO
D                        A
TU LA DUEÑA DE TODOS MIS BESOS
E                         F#m
CUANDO TU TE VAS SOY UN DESIERTO
D                      A            E
YO QUE ME BURLABA DEL AMOR Y YA ME VES



       F#m
AMOR INMENSO
D                         A
YO NO SE CONTAR CUANTO TE QUIERO
E                         F#m
SI TE VEO LEJANA SIENTO MIEDO
D                           A          E
ES PORQUE COMPRENDO QUE SIN TI NO SE VIVIR
        F#m
NO SE VIVIR.



-----------------------------------------------------------------------
ACORDES
-----------------------------------------------------------------------


     F#m        D         A         E

e-----2---- ----2---- ----0---- ----0------
B-----2---- ----3---- ----2---- ----0------
G-----2---- ----2---- ----2---- ----1------
D-----4---- ----0---- ----2---- ----2------
A-----4---- ----0---- ----0---- ----2------
E-----2---- ----0---- ----0---- ----0------

-----------------------------------------------------------------------
ACORDES *
-----------------------------------------------------------------------    

    F#m*               D*               A*               E*

e----5-----5----- -----5-----5----- ----5-----5----- ----7----7-----
B------5-----5--- -------7-----7--- ------5-----5--- ------7----7---
G--6-----6-----6- --7------7-----7- --6-----6-----6- --9-----9----9-
D---------------- ----------------- ---------------- ---------------
A---------------- ----------------- ---------------- ---------------
E---------------- ----------------- ---------------- ---------------


 L & G  [12/30/2000-01/26/2001]


Video Clip de La Vida Es


ACORDES PARA GUITARRA

PIANO UKELELE
F#m
D
A
E
F#m
D
A
E


TOP 20: Las más tocadas de Nek


Toca una Canción al Azar de Nek

Acordes

Cerrar
F#m
D
A
E
F#m
D
A
E

21.49

x

99