El movimiento de gloria

New Wine

Acordes

Subida por YEDIT777


Más Versiones
Ver. 2 Ver. 3

Cambiar Cifrado
Americano Latino

Cambiar Tonalidad
-1 +1

Partir Pantalla Imprimir FAQ

+A
-A


Ver solo la LETRA
  Intro
Em C D Em

(se repite 4 veces) (se repite 2 veces)
E--------------------|----------------------|
B------8---8---8-----|------10---10---10----|
G--7h9---9---9----9--|--7h9----9----9----9--|
D--------------------|----------------------|
A--------------------|----------------------|
E--------------------|----------------------|

(se repite 2 veces)
E------7---7---7----|
B-------------------|
G--7h9---9---9---9--|
D-------------------|
A-------------------|
E-------------------|

Trompetas// la melodia de la intro va con las Trompetas

Verso 1
Em C
El movimiento de Gloria es como una corriente de agua
D Em
que después crece, y se hace manantial//

Trompetas//la melodia de la intro va con las Trompetas


Verso 2
Em C
El manantial se convierte en río,
D
después en mar,
Em
y en océano poderoso//

Intro

(se repite 4 veces) (se repite 2 veces)
E--------------------|----------------------|
B------8---8---8-----|------10---10---10----|
G--7h9---9---9----9--|--7h9----9----9----9--|
D--------------------|----------------------|
A--------------------|----------------------|
E--------------------|----------------------|

(se repite 2 veces)
E------7---7---7----|
B-------------------|
G--7h9---9---9---9--|
D-------------------|
A-------------------|
E-------------------|

Em D C
Y la Gloria de Dios cubrirá la Tierra,
D Em
como las aguas cubren la mar//

Em C
Mi Cristo vendrá
D
por su Iglesia,
Em
por su Iglesia//

Trompetas//

Em D C
Y la Gloria de Dios cubrirá la Tierra,
D Em
como las aguas cubren la mar//

Em C
Mi Cristo vendrá
D
por su Iglesia,
Em
por su Iglesia//

Em
¡Demuestra tu Gloria!
C
¡demuestra tu Gloria!
D
¡demuestra tu Gloria!
Em D C B
¡Aquí y ahora!

Bueno esto es todo, que les sea de mucha bendicion!!
Saludos Al Ministerio Halal Son la Generación de Conquista!!


NUEVO FORO DE MÚSICA

¿Tienes alguna duda, consulta, pregunta, consejo o algo para compartir sobre esta canción?

¡Puedes abrir un hilo en el FORO para que la comunidad te ayude! Hacer una pregunta

ACORDES PARA GUITARRA

PIANO UKELELE
Em
C
D
B


Las más tocadas de New Wine

Em
C
D
B