Salmo 108

New Wine

Acordes

Subida por Delta


Más Versiones
Ver. 2 Ver. 3 Ver. 4

Cambiar Cifrado
Americano Latino

Cambiar Tonalidad
-1 +1

Partir Pantalla Imprimir FAQ

+A
-A
Buenas y Bendiciones. Deben de usar delay y
reverb para que suene bien.
Gracias a Todos.

Intro :
Em - D - Bm - Em


Verso:
Em
Padre omnipotente
D
Hemos visto tu poder
Am G D
Eres el mismo ayer, hoy y siempre.


Verso 2:
Em
No desampararás
D
los que en ti confían
Am G D
Nuestra fe solo estará en ti
Am G Bm
Mi fe permanecerá en ti.


Coro:
Em D
Grande es tu amor oh Dios
Bm Em
Y hasta los cielos tu fidelidad


Instrumental - Solo.
Em - D - Bm - Em

E--------------------------------------------
B------------------------12--b15---b17-17-17-
G--4/7--7p9--9/12--12/14---------------------
D--------------------------------------------
A--------------------------------------------
E--------------------------------------------

E----------------------b12-----------------
B---15-17-19-19/17/15------15-12-12-10-----
G--------------------------------------v11-
D------------------------------------------
A------------------------------------------
E------------------------------------------

E--------------------------------------------
B----------7-8-12-10-8-7--13-7-8-------------
G------7p9-----------------------9-7---------
D---9/-------------------------------9/------
A--------------------------------------------
E--------------------------------------------

E---------------------------------------------
B----------------------121212-151515-1717b17--
G-777 999 121212-141414-----------------------
D---------------------------------------------
A---------------------------------------------
E---------------------------------------------

Puente:
C D
Exaltado Dios seas para siempre
Bm Em
Y tu gloria al mundo llenará.


NUEVO FORO DE MÚSICA

¿Tienes alguna duda, consulta, pregunta, consejo o algo para compartir sobre esta canción?

¡Puedes abrir un hilo en el FORO para que la comunidad te ayude! Hacer una pregunta

ACORDES PARA GUITARRA

PIANO UKELELE
Em
D
Bm
Am
G
C


Las más tocadas de New Wine

Em
D
Bm
Am
G
C