Todo me recuerda a tí

Nicho Hinojosa

Acordes

Subida por emora


Más Versiones
Ver. 2 Ver. 3 Ver. 4 Ver. 5 Ver. 6

Cambiar Cifrado
Americano Latino

Cambiar Tonalidad
-1 +1

Partir Pantalla Imprimir FAQ

+A
-A


Ver solo la LETRA
   Esta canción me recordó una situación que viví hace algunos meses con alguien que
significó todo para mi, por eso me animé a sacarla... según yo no le faltan, ni le
sobran tonos y no creo que le falte ningún arreglo, pero como quiera si alguien
encuentra algún error le agradecería mucho que me lo hicieran saber.
Hay unas partes donde no se tocan todos los acordes del tono, por ejemplo: A se
tocaría así en:

A
´... pues cada paso que doy...´
E------------------------------------- X
A---------------0--0--0---0-----------
D------------------------------------- X
G------------------------------------- X
B---------------2--2--2---2-----------
e------------------------------------- X

Entonces A no se tocaría: ...si no:
E A D G B E E A D G B E
A 0 0 2 2 2 0 X 0 X X 2 X

Pero los demás tonos se los dejo de tarea, no son difíciles de identificar, bastará
con escuchar la canción un par de veces para saber cuales son.
Y después de este rollote, la canción va así:


INTRO:

E---------------------------------------------------------------------------------
A-0-------------------------------------------------------------------------------
D---------------0-----------------2----0-------0---------------2-2----------------
G--2---------------2---------2---2----------------2---------2-0----0_2------------
B---2-----------3-3-3-------3-0-2------5-------3-3-3-------3----------0_2---------
e-------5-4-2-0-2--------2-0-----------5-4-2-0-2--------2-0--------------0_2_0----


Amaj7 AMaj7(A+5) D
Cuando me dicen: ´¿que tal les va?´,
D/C# Bm7 E7 A
¿como explicarles que ya no sé ni donde estás?,
Amaj7 A2 AMaj7(A+5) D
¿porque me tienen que hablar de ti?,
D/C# Bm7 E
¿como decirles que te quiero olvidar?...


A A2 D D/C# Bm7 E A A-Asus-A
Todo me recuerda a ti, tu sombra sigue aquí,
A2 F#m/E
pues cada paso que doy, cada historia de amo-or,
Bm7 E A
todo me recuerda a tí...


E---------------------------------------------
A---------------------------------------------
D--0-------0---------------2-2----------------
G-------------2---------2-0----0_2------------
B--5-------3-3-3-------3----------0_2---------
e--5-4-2-0-2--------2-0--------------0_2_0----



Amaj7 AMaj7(A+5)
Tu me enseñaste a comprender y aceptar,
D D/C# Bm7 E7 A
que de amor nadie muere, que es fácil olvida-ar,
E------- X
A------- X
D------- X
G-0_2---
B----0--
e------- X

Amaj7 A2 AMaj7(A+5)
por eso quize refugiarme en ella,
D D/C# Bm7 E
pero cierro los ojos, y te siento en su piel...


A Asus-A D D/C# Bm7 E A A-Asus-A
Todo me recuerda a ti, tu sombra sigue aquí,
A2 F#m F#m/E
pues cada paso que doy, cada historia de amo-or,
D E A2 A2/G# A2/F#
todo me recuerda a tí-í...


F#m F#m/E Bm Bm7 D Esus F#m
Jamás te perdonaré que no pueda apartarte de mi-i,
F#m/E Bm7 D Esus Esus4
jamás te perdonaré que no pueda volver a sentir...


A A2 D D/C# Bm7 E A A-Asus-A
Todo me recuerda a ti, tu sombra sigue aquí,
F#m/E
pues cada paso que doy, cada historia de amo-or,
D E A Asus
todo me recuerda a tí...
A F#m
pues cada paso que doy, cada historia de amo-or,
D E
incluso el aire... huele... a tí...
E-----------------------
A-0---------------------
D---------------0-------
G--2---------------2----
B---2-----------3-3-3---
e-------5-4-2-0-2-------


E--------------------------------------------------------------------------------------
A----------------------------------------------------------------3-2-0-0---------------
D---------------0-------0---------------2-2-----------------3-2-0-------2-2------------
G-----2---2----------------2---------2-0---2------------2-0----------------2-2----6----
B----3-0-2------5-------3-3-3-------3--------------3-2-0----------------------0---5----
e-2-0-----------5-4-2-0-2--------2-0--------5-4-2-0----------------------------0--5----


Dedicada a quien fué el amor de mi vida: Roxana (R.G.H.C.), mucha suerte donde
quiera que te encuentres...
Dudas, sugerencias, comentarios, correciones (¿porque no?), a mi correo.


Tonos raros:

E A D G B E
AMaj7(A+5) X 0 2 1 2 0
D/C# X 4 X 2 3 2
A2 X 0 2 2 0 0
Asus X 0 2 2 3 0
F#m/E 2 4 2 2 2 2
A2/G# 4 0 2 2 0 0
A2/F# 2 0 2 2 0 0
Esus 0 2 2 2 0 0
Esus4 0 2 0 2 0 0


NUEVO FORO DE MÚSICA

¿Tienes alguna duda, consulta, pregunta, consejo o algo para compartir sobre esta canción?

¡Puedes abrir un hilo en el FORO para que la comunidad te ayude! Hacer una pregunta

ACORDES PARA GUITARRA

PIANO UKELELE
A
E
D
G
B
D/C#
Bm7
E7
Amaj7
A2
Asus
F#m/E
F#m
Bm
Esus
Esus4


Las más tocadas de Nicho Hinojosa

A
E
D
G
B
D/C#
Bm7
E7
Amaj7
A2
Asus
F#m/E
F#m
Bm
Esus
Esus4