Hermana Mía

Niños Mutantes

Acordes

Subida por Naaraytz


Más Versiones
Ver. 2

Cambiar Cifrado
Americano Latino

Cambiar Tonalidad
-1 +1

Partir Pantalla Imprimir FAQ

+A
-A
Tonalidad: Em

(Melodía de la guitarra: D-E E-D-E)

e|-----------------------------|
B|-----------------------------|
G|-----------------------------|
D|-----------------------------|
A|-----3h5---5-3h5-------------|
E|-----------------------------|


-----------------------------------------------------------------------------
Forma sencilla:

Capo VII

*Acorde "0" ---] x00000 (Sin capo: x77777)

Acordes, relativos al Capo:

Am 0 Am 0
durante toda la canción.

Tú te mereces una vida mejor,
vas a encontrar alguna pista.
Tú eres tan limpia como un rayo de sol
y vas a levantarte, hermana mía.

Deja de buscar una estrella polar,
la brújula la tienes en tu mente.
Tú vales millones y lo sabes muy bien,
qué más da lo que diga la gente. 

Tú que viajas dentro de la espiral,
tú que vas y vuelves eternamente.
Sé que estás cansada de no tener un lugar,
tienes que seguir siendo paciente.

Vamos a volar, vamos a volar,
vamos a volar, vamos a volar,
vamos a volar, vamos a volar,
vamos a volar, vamos a volar,

Vamos a volar,
tú te mereces una vida mejor,
vamos a volar,
vas a encontrar alguna pista.
Vamos a volar,
tú eres tan limpia como un rayo de sol,
vamos a volar,
y vas a levantarte, hermana mía.
A volar se va.

Vamos a volar,
vamos a volar.

----------------------------------------------------------------------

La canción es así de sencilla, dos acordes, como se puede ver en este vídeo
(Así además sacais el ritmo): https://www.youtube.com/watch?v=WOe2l7IbdUw

Si sois más habilidosos, podéis intentar hacer sonar las dos guitarras en una,
pero es complicado que suene bien:

Método dificil:

Capo V

e|-----2-2----2---2-2-----2--2----…|
B|-----3-3----3---3-3-----2--2----…|
G|-----4-4----4---4-4-----2--2----…|
D|-----4-4----4---4-4-----2--2----…|
A|-----0h2----2---0h2-----2--2----…|
E|-----x-x----x---x-x-----x--x-----|

Poniendo una posición de Bm y jugando con el dedo de la cejilla, y
luego dejando sólo la cejilla, se consiguen cosas guays.


En las tablaturas: "h" significa hammer-on, es decir, pulsar fuerte
en la cuerda para que suene la segunda nota mientras suena la segunda.

Espero que os haya servido, que la canción estaba muy pedida, un saludo!
JSS


NUEVO FORO DE MÚSICA

¿Tienes alguna duda, consulta, pregunta, consejo o algo para compartir sobre esta canción?

¡Puedes abrir un hilo en el FORO para que la comunidad te ayude! Hacer una pregunta

ACORDES PARA GUITARRA

PIANO UKELELE
Am


Las más tocadas de Niños Mutantes

Am