Bastardparadies (Acordes)

Pascow

Subida por Carolina88


Imprimir FAQ
+A
-A

Texto

Desplazamiento

Transportador

Color de Fondo

Herramientas

TAMAÑO
TONALIDAD
+A
subir tono+ (F4)
-A
bajar tono- (F2)
 [Intro 1]

     E5                                   2x
e|-------------------------3-------5-------|-----|
B|--------------5--------5---5-------5-----|--5--|
G|o--9---9----7---7-4--5--------/7-----7--o|-----|
D|o----9---9------------------------------o|-----|
A|-----------------------------------------|-----|
E|-----------------------------------------|-----|

[Intro 2]
E5     C5 D5
E5     C5 D5

[Intro 3]
    E5                       C5       D5
e|-----------------------------------------------|
B|---------------------8-------8---7-------------|
G|o--------7---------------------------7---7----o|
D|o--9-9-9-----9-9-9-9-----9-9---9---9---9---9--o|
A|-----------------------------------------------|
E|-----------------------------------------------|

[Intro 4]
    E5                   C5      D5    E5                  C5      D5
e|----------------------------------|---------------------------------|
B|----------------------------------|---------------------------------|
G|--9--7--X------------/9--7---\2---|--9--7---------------------------|
D|-----------5--7--9----------------|--------7--5--7--9---/9----------|
A|----------------------------------|---------------------------------|
E|----------------------------------|---------------------------------|

[Verse 1]
E5                            C5          D5
   Hier wo die Goon Docks niemals sterben
E5                                C5               D5
   Dort wo ganz Google mich nicht sieht und wo sie auch nicht werben
E5                            C5       D5
   Pass gut auf, jetzt kommt der Sinn,
E5                                   C5                  D5
   Ich will (mir) hier gar nichts verdienen und ich will nicht gewinnen…

[Chorus]
    G5                  B5          G5 D5
The Girl still lives on heaven hill
      G5                      B5          G5 D5
Machs gut, stirb schnell, auf Wiedersehen
       G5           B5              G5         D5
Mein Zuhause wie es hieß ist dieses Bastardparadies
        G5                 B5              G5
und vielleicht ist es auch morgen schon vorbei, doch â€žGoonies never say die“.

[Intro 3]
    E5                       C5       D5
e|-----------------------------------------------|
B|---------------------8-------8---7-------------|
G|o--------7---------------------------7---7----o|
D|o--9-9-9-----9-9-9-9-----9-9---9---9---9---9--o|
A|-----------------------------------------------|
E|-----------------------------------------------|


[Verse 2]
E5                          C5       D5
   Dein neuer Club macht gute Zahlen
E5                              C5                 D5
   Weißt immer wer für wie viel spielt und wie die Upsales waren
E5                       C5       D5
   Weiter wie es im Bauplan stand
E5                             C5            D5
   Verkauf die Peitsche an den Esel und nenn das dann Punk

[Chorus]
    G5                  B5          G5 D5
The Girl still lives on heaven hill
      G5                      B5          G5 D5
Machs gut, stirb schnell, auf Wiedersehen
       G5           B5              G5         D5
Mein Zuhause wie es hieß ist dieses Bastardparadies
        G5                 B5              G5
und vielleicht ist es auch morgen schon vorbei, doch â€žGoonies never say die“.

[Intro 3]
    E5                       C5       D5
e|-----------------------------------------------|
B|---------------------8-------8---7-------------|
G|o--------7---------------------------7---7----o|
D|o--9-9-9-----9-9-9-9-----9-9---9---9---9---9--o|
A|-----------------------------------------------|
E|-----------------------------------------------|

[Intro 4]
    E5                   C5      D5    E5                  C5      D5
e|----------------------------------|---------------------------------|
B|----------------------------------|---------------------------------|
G|--9--7--X------------/9--7---\2---|--9--7---------------------------|
D|-----------5--7--9----------------|--------7--5--7--9---/9----------|
A|----------------------------------|---------------------------------|
E|----------------------------------|---------------------------------|

[Bridge 1]
B5

[Bridge 2]
repeats:
1. open
2. p.m.
3. open 1,5x
     G5    B5   G5      D5      G5    B5   G5      D5
e|--------------------------|------------------------------|
B|--------------------------|------------------------------|
G|--------------------------|------------------------------|
D|---9-9-7-9----9-9-12\-7---|---9-9-7-9----9-9-12\-7---4---|
A|--------------------------|------------------------------|
E|--------------------------|------------------------------|



************************************

| /  Slide up
| \  Slide down

************************************ 

HERRAMIENTAS ACORDESWEB:


LETRA DE LA CANCIÓN:

Ver la letra sola (sin acordes)

DESCARGAR PDF / IMPRIMIR CANCIÓN



ACORDES PARA

e5
E5
c5
C5
d5
D5
g5
G5
b5
B5


TOP 20: Las más tocadas de Pascow