I Shot the Sherif ( Intrumental ) (Acordes)

Peter Tosh

Subida por Canon334

Compartir


Imprimir FAQ
+A
-A

Texto

Desplazamiento

Transportador

Color de Fondo

Archivos

-A
+A
De: Bob Marley
Vs. Peter Tosh


Intr.

E]-------------------------------------------[
B]-------------------------------------------[
G]-10h12-10------------7---------------------[
D]----------12-10-8h10---8-10-8-5~-----------[
A]-------------------------------------------[
E]-------------------------------------------[


- Tema do Bob Marley
Obs. Tome muito cuidado na hora de usar o Wah-Wah
procure escutar bem a música, o wah-wah é muito usado porém na hora certa.



E]-6-----------------------------------------------[
B]-8-6---6-8~--------------------------6-----------[
G]-7---7-------3/5~--------3-3-5-3-5/7---5b(7)*-5~-[
D]-------------------3h5-5-------------------------[
A]-------------------------------------------------[
E]-------------------------------------------------[


E]-6------------------------------------------[
B]-8-6---6-8~---------------------------------[
G]-7---7-------3/5~--------3-3-5-3-5/7-5-5~---[
D]-------------------3h5-5--------------------[
A]--------------------------------------------[
E]--------------------------------------------[

E]----------------------------[
B]-8~-6~---6---6/8~-----------[
G]-------7---7----------------[
D]----------------------------[
A]----------------------------[
E]----------------------------[

E]----------------------------[
B]-8~-6~---6---1/3~-----------[
G]-------7---7----------------[
D]----------------------------[
A]----------------------------[
E]----------------------------[

E]----------5-----------------[
B]-8~-6~------6-6~------------[
G]--------7-------------------[
D]----------------------------[
A]----------------------------[
E]----------------------------[

E]----------------------------[
B]---------6------------------[
G]-----5-7---7-5-7-5----------[
D]-5h8---------------8-8~-----[
A]----------------------------[
E]----------------------------[

E]----------------------------[
B]---------6------------------[
G]-----5-7---7-5-7-5----------[
D]-5h8---------------8-8~-----[
A]----------------------------[
E]----------------------------[

E]----------------------------[
B]----------------------------[
G]----------------------------[
D]-5-3------------------------[
A]-----5-3---3-5---3----------[
E]---------6-----6---6-3~-----[

Legenda:
b* - Bend Gradual
/  - Slide
h  - Hammer-on
~  - Vibrato





Transcrição: Nando Monteiro / banda Nahgandaya

HERRAMIENTAS ACORDESWEB:


LETRA DE LA CANCIÓN:

Ver la letra sola (sin acordes)

OTRAS VERSIONES DE LA MISMA CANCIÓN:

Ver. 2 Ver. 3 Ver. 4 Ver. 5 Ver. 6

DESCARGAR PDF / IMPRIMIR CANCIÓN



ACORDES PARA GUITARRA

PIANO UKELELE
E
B
A
G
D


TOP 20: Las más tocadas de Peter Tosh


Toca una Canción al Azar de Peter Tosh

Acordes

Cerrar
E
B
A
G
D

01.28

x

74