Bitxo Raro (Acordes)

Piperrak

Subida por ange

Compartir


Imprimir FAQ
+A
-A

Texto

Desplazamiento

Transportador

Color de Fondo

Archivos

-A
+A
bueno pues aqui va el tabulado de esta peadazo cancion
lo primero os digo que no soy ningun genio con el bajo
asi k lo mas seguro eske el tabulado este mal :(
pero bueno si es asi espero que alguien lo corriga
y si esta bien pues dadme las gracias k siempre levanta el animo, jejeje




empieza el bajo con esto y se repite 8 veces ( me parece :S )

------------------------------7---------------------
-----------2--2-2--0--5--5-5------------------------
-----2--3------------------------3--3-3--0--5--5-5--
--3-------------------------------------------------


despues empieza la bateria ha meter caña y hace esto, se repite 2 veces

----------------------------------------------------
-----------2----------5-----------------------------
-----2--3------------------------3-----------5-5-5--
--3-------------------------------------------------


luego hace esto k se repite en casi toda la cancion
pero va cambiando el ritmo
bueno lo escuchais y lo pillais en seguida

---------------------------------------------------
--2-2-2-2-2-2-5-5-5-5-5-5--------------------------
--------------------------3-3-3-3-3-3-5-5-5-5-5-5--
---------------------------------------------------



y el estribillo hace esto

-------------------------------------
--2-2-2-2-2-5-5-5-5-5----------------
----------------------5-5-5-5-5-5----
-------------------------------------



saludos :P

pasaos x aki www.comandoetilikolevantino.com

venga venga =)


Video Clip de Bitxo Raro


ACORDES PARA GUITARRA

PIANO UKELELE


TOP 20: Las más tocadas de Piperrak


Toca una Canción al Azar de Piperrak

Acordes

Cerrar

23.49

x

72