Asesinos (Acordes)

Rata Blanca

Subida por Miguelrey

Compartir


Imprimir FAQ
+A
-A

Texto

Desplazamiento

Transportador

Color de Fondo

Archivos

-A
+A
Intro:

        |   Hacerlo dos veces      |
   F#      E     D  D
e|------------------2-2-2-2-2-2-2----|
B|------------------3-3-3-3-3-3-3----|
G|-11-v/---4-4-4-2--2-2-2-2-2-2-2----|
D|-11-v/---2-2-2-0--0-0-0-0-0-0-0----|
A|-9--v/-----------------------------|
E|-----------------------------------|
                . . . . . . .
-----------------------------------------------------------------

     E     D D               G     E G               E E E F#
e|-----------2222222-------------3333333---------------------|
B|-----------3333333-------------3333333---------------------|
G|---4-4-4-2-2222222-----7-7-7-4-0000000-------------4-4-4-6-|
D|-0-2-2-2-0-------------5-5-5-2---------------------2-2-2-4-|
A|-----------------------------------------------------------|
E|-----------------------------------------------------------|
   .         .......             .......
             Dejo de soñar        triste al despertar

   E            F#    D D         G      A
e|-0000000-------------------------------------|
B|-0000000-------------------------------------|
G|--------------4-4-4-6-6666666----------------|
D|--------------2-2-2-4-4444444---5-5-5--7-7---|
A|--------------------------------5-5-5--7-7---|
E|--------------------------------3-3-3--5-5---|
   .......              .......
      veo la verdad.          Hou!

B             G     D-C#-B
  Es que el hombre
             D     E
  que proclamó la vida
D             A              G-F#-G-A-G-F#-E
  vuelve a matar una vez más.

E             C
  Hoy las naciones mueren
E          D           E
  y se desangran de dolor,
       G                 D                  F#-F#
  una lucha cruel en el nombre de algún Dios.

F#-F#-B    G-D-C#  B        D E
  ¡Asesinos!         pagarán...
  ¡Asesinos!         por su mal...

B
  Y una respuesta
  trato de encontrar,
  entre los gritos
D                    F#-F#-D-D
  de la humanidad...

Pobre tierra
se que te encuentras sola
y resistiendo hasta el final...

Y la indiferencia
de unos tontos con poder,
que se burlan de los destinos sin saber.

¡Asesinos! ...pagarán...
¡Asesinos! ...por su mal...

¡Asesinos! ...pagarán...
¡Asesinos! ...por su mal...

El castigo que debieron merecer
por manipular la fe,
lo sufrirán esta vez.

Hoy las naciones mueren
y se desangran de dolor,
una lucha cruel en el nombre de algún Dios.

¡Asesinos! ...pagarán...
¡Asesinos! ...por su mal...


Video Clip de Asesinos


ACORDES PARA GUITARRA

PIANO UKELELE
F#
E
D
G
A
B
C#
C


TOP 20: Las más tocadas de Rata Blanca


Toca una Canción al Azar de Rata Blanca

Acordes

Cerrar
F#
E
D
G
A
B
C#
C

06.18

x

142