Diario de una sombra (Acordes)

Rata Blanca

Full Álbum: El reino olvidado (2008)
Subida por rodafada

Compartir


Imprimir FAQ
+A
-A

Texto

Desplazamiento

Transportador

Color de Fondo

Archivos

-A
+A
AKI DANDO LATA CON ESTA ROLA, DISCULPEN EL SOLO, PERO
NO TENGO EL EFECTO, SI KIEREN UN SOLO ALTERNATIVO ESCRIBANME.
SALUDOS DESDE PUEBLA (MÉXICO)

 ************  [email protected] *****************


  INTRO:

g|--------------------------------------------------------------
D|-5-7-7-5-7-7-5-7-7-5-7-7-5-7-7--------------------------------
A|-3-5-5-3-5-5-3-5-5-3-5-5-3-5-5--------------------------------
E|--------------------------------7-0-5-0-7-6-4-0-6-5-3-0-3-5-6-

g|----------------------------
D|-----------------------7-5--
A|-----------------------5-3--
E|-7-0-5-0-7-6-4-0-6-5-3------

g|-------------------------------
D|-------------------------------
A|-------------------------------
E|-7-0-5-0-7-6-4-0-6-5-3-0-3-5-6-

D|-----------------------7-5---
A|-----------------------5-3---
E|-7-0-5-0-7-6-4-0-6-5-3-------

  Verso:

g|---------------------------------------------------------------
D|---------------------------------------------------------------
A|-4-2-2-2-2-2-2-2-2-2-4-2-2-2-2-2-2-----------------------------
E|-4-2-2-2-2-2-2-2-2-2-4-2-2-2-2-2-2-7-5-0-7-6-4-0-6-5-3-0-3-5-6-

 Nada de lo que me digas me va a convencer

g|---------------------------------------------------------------
D|---------------------------------------------------------------
A|-4-2-2-2-2-2-2-2-2-2-4-2-2-2-2-2-2-----------------------------
E|-4-2-2-2-2-2-2-2-2-2-4-2-2-2-2-2-2-7-5-0-7-6-4-0-6-5-3-0-3-5-6-

 Si solo tu mente idiota lo puede creer

g|--------------------------------------------------------
D|-4----------------5--------------7----------------5-----
A|-2----------------3--------------5----------------3-----
E|--------------------------------------------------------

   Tú mente apunta hacia los demás   y me pregunto siempre

g|-----------------------------------------------------
D|------7-6-5--7------------5-7-7-5-7-7-5-7-7-5-7-7----
A|------5-4-3--5------------3-5-5-3-5-5-3-5-5-3-5-5----
E|-----------------------------------------------------

  Quién serás   quién para juzgar



g|-----------------------------------------------------------
D|------------------------------------------------------7-5--
A|------------------------------------------------------5-3--
E|-7-0-5-0-7-6-4-0-6-5-3-0-3-5-6--7-0-5-0-7-6-4-0-6-5-3------

   Mírate  a  ti  mismoooooo     comiendo  de  los  demás
g|-----------------------------------------------------------
D|------------------------------------------------------7-5--
A|------------------------------------------------------5-3--
E|-7-0-5-0-7-6-4-0-6-5-3-0-3-5-6--7-0-5-0-7-6-4-0-6-5-3------

   Mírate  a  ti  mismooooo       hablado de la humildad


g|---------------------------------------------------------------
D|---------------------------------------------------------------
A|-4-2-2-2-2-2-2-2-2-2-4-2-2-2-2-2-2-----------------------------
E|-4-2-2-2-2-2-2-2-2-2-4-2-2-2-2-2-2-7-5-0-7-6-4-0-6-5-3-0-3-5-6-

  Por que no dedicas tu tiempo en algo mejor

g|---------------------------------------------------------------
D|---------------------------------------------------------------
A|-4-2-2-2-2-2-2-2-2-2-4-2-2-2-2-2-2-----------------------------
E|-4-2-2-2-2-2-2-2-2-2-4-2-2-2-2-2-2-7-5-0-7-6-4-0-6-5-3-0-3-5-6-

  Si puedes escribir el libro del perdedor

g|--------------------------------------------------------
D|-4----------------5------7----------------5-------------
A|-2----------------3------5----------------3-------------
E|--------------------------------------------------------

  Seguramente lo venderás       algunos tontos

g|------------------------------------------------------
D|------7-6-5------7------------5-7-7-5-7-7-5-7-7-5-7-7-
A|------5-4-3------5------------3-5-5-3-5-5-3-5-5-3-5-5-
E|------------------------------------------------------

  Te lo comprarán algo ganarás

g|-----------------------------------------------------------
D|------------------------------------------------------7-5--
A|------------------------------------------------------5-3--
E|-7-0-5-0-7-6-4-0-6-5-3-0-3-5-6--7-0-5-0-7-6-4-0-6-5-3------

   Mírate  a  ti  mismoooooo     comiendo  de  los  demás

g|-----------------------------------------------------------
D|------------------------------------------------------7-5--
A|------------------------------------------------------5-3--
E|-7-0-5-0-7-6-4-0-6-5-3-0-3-5-6--7-0-5-0-7-6-4-0-6-5-3------

   Mírate  a  ti  mismooooo       hablado de la humildad

gg|----------------------------------------------------------
D|------------------------------------------------------7-5--
A|------------------------------------------------------5-3--
E|-7-0-5-0-7-6-4-0-6-5-3-0-3-5-6--7-0-5-0-7-6-4-0-6-5-3------

   Mírate  a  ti  mismoooooo      juzgando nuestra moral

g|-------------------------------------------------------------
D|-------------------------------------------------------------
A|------------------------------7-7--7-7--7-7--7-7----7-7--7-7-
E|-7-0-5-0-7-6-4-0-6-5-3-3/5-3--5-5--5-5--5-5--5-5----5-5--5-5-

   Mírate  a  ti  mismooooo




g|----------------------------------------------------------
D|----------------------------------------------------------
A|-7-7--7-7----7-7--7-7--7-7--7-7----7-7--7-7--7-7--7-7-----
E|-5-5--5-5----5-5--5-5--5-5--5-5----5-5--5-5--5-5--5-5-----

BASE DEL SOLO:

     Minuto: 2:02
g|-------------------------------|------------------------------
D|-------------------------------|------------------------------
A|-7-0-5-0-7-6-4-0-6-5-3-0-3-5-6-|-7-0-5-0-7-6-4-0-6-5-3-0-3-5-6
E|-------------------------------|------------------------------

g|-------------------------------|------------------------------
D|-------------------------------|------------------------------
A|-7-0-5-0-7-6-4-0-6-5-3-0-3-5-6-|-7-0-5-0-7-6-4-0-6-5-3-0-3-5-6
E|-------------------------------|------------------------------

     Minuto: 2:16
g|-------------------------------|------------------------------
D|-------------------------------|------------------------------
A|-------------------------------|------------------------------
E|-7-0-5-0-7-6-4-0-6-5-3-0-3-5-6-|-7-0-5-0-7-6-4-0-6-5-3-0-3-5-6

g|-------------------------------|------------------------------
D|-------------------------------|------------------------------
A|-------------------------------|------------------------------
E|-7-0-5-0-7-6-4-0-6-5-3-0-3-5-6-|-7-0-5-0-7-6-4-0-6-5-3-0-3-5-6

     Minuto: 2:30
g|-4----7--5---4----5--7---4----7--5---4----------------
D|-4----7--5---4----5--7---4----7--5---4------7-7--7-7--
A|-2----5--3---2----3--5---2----5--3---2------5-5--5-5--
E|---------------------------------------7/2------------




g|---------------------------------------------------------------
D|---------------------------------------------------------------
A|-4-2-2-2-2-2-2-2-2-2-4-2-2-2-2-2-2-----------------------------
E|-4-2-2-2-2-2-2-2-2-2-4-2-2-2-2-2-2-7-5-0-7-6-4-0-6-5-3-0-3-5-6-

 No creas que esto ha terminado, todavía hay más

g|---------------------------------------------------------------
D|---------------------------------------------------------------
A|-4-2-2-2-2-2-2-2-2-2-4-2-2-2-2-2-2-----------------------------
E|-4-2-2-2-2-2-2-2-2-2-4-2-2-2-2-2-2-7-5-0-7-6-4-0-6-5-3-0-3-5-6-

  Ya sabes todas nuestras cuentas debemos pagar

g|-------------------------------------------------------
D|-4----------------5-----7----------------5-------------
A|-2----------------3-----5----------------3-------------
E|-------------------------------------------------------

No safarás tu mediocridad   te arrastrará la triste

g|------------------------------------------------------
D|------7-6-5------7------------5-7-7-5-7-7-5-7-7-5-7-7-
A|------5-4-3------5------------3-5-5-3-5-5-3-5-5-3-5-5-
E|------------------------------------------------------

  Soledad         en que terminarás


g|-----------------------------------------------------------
D|------------------------------------------------------7-5--
A|------------------------------------------------------5-3--
E|-7-0-5-0-7-6-4-0-6-5-3-0-3-5-6--7-0-5-0-7-6-4-0-6-5-3------

   Mírate  a  ti  mismoooooo     comiendo  de  los  demás

g|-----------------------------------------------------------
D|------------------------------------------------------7-5--
A|------------------------------------------------------5-3--
E|-7-0-5-0-7-6-4-0-6-5-3-0-3-5-6--7-0-5-0-7-6-4-0-6-5-3------

   Mírate  a  ti  mismooooo       hablado de la humildad

g|-----------------------------------------------------------
D|------------------------------------------------------7-5--
A|------------------------------------------------------5-3--
E|-7-0-5-0-7-6-4-0-6-5-3-0-3-5-6--7-0-5-0-7-6-4-0-6-5-3------

   Mírate  a  ti  mismoooooo      Juzgando nuestra moral

g|-----------------------------------------------------------
D|------------------------------------------------------7-5--
A|------------------------------------------------------5-3--
E|-7-0-5-0-7-6-4-0-6-5-3-0-3-5-6--7-0-5-0-7-6-4-0-6-5-3------

   Cuídate a ti mismo             Que el día te llegará

g|-----------------------------------------------------------
D|------------------------------------------------------7-5--
A|------------------------------------------------------5-3--
E|-7-0-5-0-7-6-4-0-6-5-3-0-3-5-6--7-0-5-0-7-6-4-0-6-5-3------

                                         Mírate a ti mismo

g|-----------------------------------------------------------
D|------------------------------------------------------7-5--
A|------------------------------------------------------5-3--
E|-7-0-5-0-7-6-4-0-6-5-3-0-3-5-6--7-0-5-0-7-6-4-0-6-5-3------

                                         Mírate a ti mismo

g|-----------------------------------------------------------
D|------------------------------------------------------7-5--
A|------------------------------------------------------5-3--
E|-7-0-5-0-7-6-4-0-6-5-3-0-3-5-6--7-0-5-0-7-6-4-0-6-5-3------

                                         Mírate a ti mismo

g|-----------------------------------------------------------
D|------------------------------------------------------7-5--
A|------------------------------------------------------5-3--
E|-7-0-5-0-7-6-4-0-6-5-3-0-3-5-6--7-0-5-0-7-6-4-0-6-5-3------

                                         Mírate a ti mismo

 *********** eso es todo**********************


Video Clip de Diario de una sombra


ACORDES PARA GUITARRA

PIANO UKELELE


TOP 20: Las más tocadas de Rata Blanca


Toca una Canción al Azar de Rata Blanca

Acordes

Cerrar

07.00

x

65