Preludio Obsesivo (Acordes)

Rata Blanca

Full Álbum: Rata Blanca (1988)
Subida por Myky3096

Compartir


Imprimir FAQ
+A
-A

Texto

Desplazamiento

Transportador

Color de Fondo

Archivos

-A
+A
BUENO ACA LES DEJO UN TEMAZO DE RATA BLANCA .... SIN PALABRAS



E||-----------------|-----------------12-17-12-----------------------|
B||-----------------|--------------13----------13--------------------|
G||-----------------|-----------14----------------14-----------------|
D||-----------------|--------14----------------------14--------------|
A||--6/---12--------|--12-15----------------------------15-12--------|
E||-----------------|------------------------------------------------|



--------------------12-17-12----------------------12-17-12--|
-----------------13----------13----------------13-----------|
--------------14----------------14----------14--------------|
-----------14----------------------14----14-----------------|
--12-12-15----------------------------15--------------------|
------------------------------------------------------------|



--17b---------19--15--17~-------------------|
--------------------------------------------|
--------------------------------------------|
--------------------------------------------|
--------------------------------------------|
--------------------------------------------|



-----------------------------------|--------------------------------|
-----------------------------------|--------------------------------|
--14--------14/---------------0----|--------------14--13--14--------|
------------14/---------------0----|--------12-14-------------------|
------------12/---------------0----|--12-15-------------------------|
-----------------------------------|--------------------------------|



------------------------------------|--------------------------------|
-----------15-13-12-----------------|--------------------------------|
--13-14-16----------14-13-14--------|--------------14--13--14--------|
------------------------------------|--------12-14-------------------|
------------------------------------|--12-15-------------------------|
------------------------------------|--------------------------------|



----------------------------------------|
-----------13-12-17-13-12---------------|
--13-14-16----------------14-13-14------|
----------------------------------------|
----------------------------------------|
----------------------------------------|



-----------17-21-17-----------------|----------------------------|
--------17----------17--------------|--15-14-15-17-15-17-18------|
--18-19----------------19-18~-------|----------------------------|
------------------------------------|----------------------------|
------------------------------------|----------------------------|
------------------------------------|----------------------------|



-----------15-19-15-----------------|----------------------------|
--------15----------15--------------|--13-12-13-15-13-15-17------|
--16-17----------------17-16--------|----------------------------|
------------------------------------|----------------------------|
------------------------------------|----------------------------|
------------------------------------|----------------------------|



-----------13-17-13-----------------|----------------------------|
--------13----------13--------------|--11-10-11-13-11-13-15------|
--14-15----------------15-14--------|----------------------------|
------------------------------------|----------------------------|
------------------------------------|----------------------------|
------------------------------------|----------------------------|



--17-16-13----17-16-13----17-16-13----19b-------16~-------|
-----------17----------17----------17---------------------|
----------------------------------------------------------|
----------------------------------------------------------|
----------------------------------------------------------|
----------------------------------------------------------|



-----------17-21-17-----------------|----------------------------|
--------17----------17--------------|--15-14-15-17-15-17-18------|
--18-19----------------19-18~-------|----------------------------|
------------------------------------|----------------------------|
------------------------------------|----------------------------|
------------------------------------|----------------------------|



-----------15-19-15-----------------|----------------------------|
--------15----------15--------------|--13-12-13-15-13-15-17------|
--16-17----------------17-16--------|----------------------------|
------------------------------------|----------------------------|
------------------------------------|----------------------------|
------------------------------------|----------------------------|



-----------13-17-13-----------------|----------------------------|
--------13----------13--------------|--11-10-11-13-11-13-15------|
--14-15----------------15-14--------|----------------------------|
------------------------------------|----------------------------|
------------------------------------|----------------------------|
------------------------------------|----------------------------|



--16-17-16----16------------------------------|
-----------18----18-17-18-17-15---------------|
--------------------------------17-16-14-13---|
----------------------------------------------|
----------------------------------------------|
----------------------------------------------|



-----------------------------|
-----------------------------|
-----------------------------|
-------6-7-9-7-6~7-----------|
-----------------------------|
--0--------------------------|



--8p5---8p5---12p8----12p8----13p10----13p10----10p7---10p7---|
------5-----5------10------10-------12-------12------9------9-|
--------------------------------------------------------------|
--------------------------------------------------------------|
--------------------------------------------------------------|
--------------------------------------------------------------|



--8p5---8p5---12p8----12p8----13p10----13p10----10p7---10p7---|
------5-----5------10------10-------12-------12------9------9-|
--------------------------------------------------------------|
--------------------------------------------------------------|
--------------------------------------------------------------|
--------------------------------------------------------------|



--12p9----12p9----15p12----15p12----13p10----13p10----17p13----17p13--
-------10------10-------14-------14-------10-------10-------15-------1
----------------------------------------------------------------------
----------------------------------------------------------------------
----------------------------------------------------------------------
----------------------------------------------------------------------



--10p7---10p7---13p10----13p10----12p8---13p8---12p8---12p8---|
-------8------8-------12-------12------8------8------8------8-|
--------------------------------------------------------------|
--------------------------------------------------------------|
--------------------------------------------------------------|
--------------------------------------------------------------|



--8p5---8p5---12p8----12p8----13p10----13p10----16p13----16p13----|
------5-----5------10------10-------12-------12-------15-------15-|
------------------------------------------------------------------|
------------------------------------------------------------------|
------------------------------------------------------------------|
------------------------------------------------------------------|



--19p16----16p13----13p10----10p7---|
--------18-------15-------12------9-|
------------------------------------|
------------------------------------|
------------------------------------|
------------------------------------|



--8p5---8p5---12p8----12p8----19p16----16p13----13p10----10p7---|
------5-----5------10------10-------18-------15-------12------9-|
----------------------------------------------------------------|
----------------------------------------------------------------|
----------------------------------------------------------------|
----------------------------------------------------------------|



--8p5---8p5---12p8----12p8----19p16----16p13----13p10----10p7---|
------5-----5------10------10-------18-------15-------12------9-|
----------------------------------------------------------------|
----------------------------------------------------------------|
----------------------------------------------------------------|
----------------------------------------------------------------|



--8p5---8p5---10p7---10p7---12p8---12p8---12p9----12p9----|
------5-----5------8------8------8------8------10------10-|
----------------------------------------------------------|
----------------------------------------------------------|
----------------------------------------------------------|
----------------------------------------------------------|



--13p10----13p10----10p7---10p7---12p8---12p8---8p5---8p5---|
--------10-------10------8------8------8------8-----5-----5-|
------------------------------------------------------------|
------------------------------------------------------------|
------------------------------------------------------------|
------------------------------------------------------------|



--10p6---10p6---7p4---7p4---8p5---7p5---8p5---7p5---|
-------6------6-----6-----6-----5-----5-----5-----5-|
----------------------------------------------------|
----------------------------------------------------|
----------------------------------------------------|
----------------------------------------------------|



--8p5---8p5---11p8----11p8----14p11----14p11----17p14----17p14----|
------7-----7------10------10-------13-------13-------16-------16-|
------------------------------------------------------------------|
------------------------------------------------------------------|
------------------------------------------------------------------|
------------------------------------------------------------------|



--17p12----17p12----17p12----17p12----16p12----16p12----16p12----16p12
--------13-------13-------13-------13-------12-------12-------12------
----------------------------------------------------------------------
----------------------------------------------------------------------
----------------------------------------------------------------------
----------------------------------------------------------------------



--15p12----15p12----15p12----15p12----18p15----18p15----18p15----18p15
--------14-------14-------14-------14-------17-------17-------17------
----------------------------------------------------------------------
----------------------------------------------------------------------
----------------------------------------------------------------------
----------------------------------------------------------------------



--17p13----18p13----17p13----17p13----17p13----18p13----17p13----17p13
--------15-------15-------15-------15-------15-------15-------15------
----------------------------------------------------------------------
----------------------------------------------------------------------
----------------------------------------------------------------------
----------------------------------------------------------------------



--12p9----12p9----12p9----12p9----15p12----15p12----15p12----15p12----
-------11------11------11------11-------14-------14-------14-------14-
----------------------------------------------------------------------
----------------------------------------------------------------------
----------------------------------------------------------------------
----------------------------------------------------------------------



--13p10----15p10----13p10----13p10----13p10----15p10----13p10----13p10
--------10-------10-------10-------10-------10-------10-------10------
----------------------------------------------------------------------
----------------------------------------------------------------------
----------------------------------------------------------------------
----------------------------------------------------------------------



--13p10----13p10----13p10----13p10----10p7---10p7---10p7---10p7---|
--------12-------12-------12-------12------9------9------9------9-|
------------------------------------------------------------------|
------------------------------------------------------------------|
------------------------------------------------------------------|
------------------------------------------------------------------|



--12p8----12p8----12p8----12p8----17p12----17p12----17p12----17p12----
-------10------10------10------10-------13-------13-------13-------13-
----------------------------------------------------------------------
----------------------------------------------------------------------
----------------------------------------------------------------------
----------------------------------------------------------------------



--20p17----20p17----17p14----17p14----14p11----14p11----11p8----11p8--
--------19-------19-------16-------16-------13-------13------10------1
----------------------------------------------------------------------
----------------------------------------------------------------------
----------------------------------------------------------------------
----------------------------------------------------------------------



--0-0-13-0-0-12-0-0-10-0-0-8-0-0-12-0-0-10-0-0-8-0-0-7-|
-------------------------------------------------------|
-------------------------------------------------------|
-------------------------------------------------------|
-------------------------------------------------------|
-------------------------------------------------------|



--0-0-10-0-0-8-0-0-7-0-0-5-0-0-8-0-0-7-0-0-5-0-0-4-|
---------------------------------------------------|
---------------------------------------------------|
---------------------------------------------------|
---------------------------------------------------|
---------------------------------------------------|



--0-0-13-0-0-12-0-0-10-0-0-8-0-0-12-0-0-10-0-0-8-0-0-7-|
-------------------------------------------------------|
-------------------------------------------------------|
-------------------------------------------------------|
-------------------------------------------------------|
-------------------------------------------------------|



--0-0-10-0-0-8-0-0-7-0-0-5-0-0-8-0-0-7-0-0-5-0-0-4-|
---------------------------------------------------|
---------------------------------------------------|
---------------------------------------------------|
---------------------------------------------------|
---------------------------------------------------|



--5-7-8-5-7-8-10-7-8-10-12-8-10-12-13-12-10--------------------|
--------------------------------------------13-12-10-12-9-10---|
-------------------------------------------------------------9-|
---------------------------------------------------------------|
---------------------------------------------------------------|
---------------------------------------------------------------|



----------------------------------|------------------|
----------------------------------|------------------|
-------------------------2--------|------------------|
--10------------2--------2--------|------------------|
-----12-11~-----2--------0--------|------------------|
----------------0-----------------|------------------|



--16p12----12-16p12----12-16p12----12-13-12----12-16-12----12-16-12---
--------15----------15----------15----------15----------15----------15
----------------------------------------------------------------------
----------------------------------------------------------------------
----------------------------------------------------------------------
----------------------------------------------------------------------



--16---20-17----17-12----12----------------------------------17-------
-------------17-------13----13----13----------------13----13----------
-------------------------------14----14----14----------14-------------
----------------------------------------14----14----------------------
-------------------------------------------------15-------------------
----------------------------------------------------------------------



--16p12----12-16p12----12-16p12----12-13-12----12-16-12----12-16-12---
--------15----------15----------15----------15----------15----------15
----------------------------------------------------------------------
----------------------------------------------------------------------
----------------------------------------------------------------------
----------------------------------------------------------------------



--16---20-17----17-12----12----------------------------------17-------
-------------17-------13----13----13----------------13----13----------
-------------------------------14----14----14----------14-------------
----------------------------------------14----14----------------------
-------------------------------------------------15-------------------
----------------------------------------------------------------------



--15--17--13--17------17------17----------------------------|
------------------17------15------14-14-15-17-15-14-15------|
------------------------------------------------------------|
------------------------------------------------------------|
------------------------------------------------------------|
------------------------------------------------------------|



--13--15--12--15------15------15----------------------------|
------------------15------13------12-12-13-15-13-12-13------|
------------------------------------------------------------|
------------------------------------------------------------|
------------------------------------------------------------|
------------------------------------------------------------|



--13p10----13p10----10p7---10p7---12p8----12p8----8p5---8p5---|
--------12-------12------9------9------10------10-----5-----5-|
--------------------------------------------------------------|
--------------------------------------------------------------|
--------------------------------------------------------------|
--------------------------------------------------------------|



--12b-12-10--------------------------------------|
------------13-12-10-9-10-12-10-10b-------10-----|
-------------------------------------------------|
-------------------------------------------------|
-------------------------------------------------|
-------------------------------------------------|



--15--17--13--17------17------17----------------------------|
------------------17------15------14-14-15-17-15-14-15------|
------------------------------------------------------------|
------------------------------------------------------------|
------------------------------------------------------------|
------------------------------------------------------------|



--13--15--12--15------15------15----------------------------|
------------------15------13------12-12-13-15-13-12-13------|
------------------------------------------------------------|
------------------------------------------------------------|
------------------------------------------------------------|
------------------------------------------------------------|



--13p10----13p10----10p7---10p7---12p8----12p8----8p5---8p5---|
--------12-------12------9------9------10------10-----5-----5-|
--------------------------------------------------------------|
--------------------------------------------------------------|
--------------------------------------------------------------|
--------------------------------------------------------------|



--12b-12-10------------------------------------|
------------13-12-10-9-10-12-10-10b------------|
-----------------------------------------------|
-----------------------------------------------|
-----------------------------------------------|
-----------------------------------------------|



--------------------------------|--13b---------------------------|
--10~---------------------------|--------------------------------|
--------------------------------|--------------------------------|
--------------------------------|--------------------------------|
--------------------------------|--------------------------------|
--------------------------------|--------------------------------|



--13b----------------12h13p12----------13--12--|
-----------------------------------------------|
-----------------------------------------------|
-----------------------------------------------|
-----------------------------------------------|
-----------------------------------------------|



--10--------------------------------|
------------------------------------|
------------------------------------|
------------------------------------|
------------------------------------|
------------------------------------|



--------12----13--15--13--12----13-12-------12----------------|
--15-------------------------15-------15-13----15-13-12-15-13-|
--------------------------------------------------------------|
--------------------------------------------------------------|
--------------------------------------------------------------|
--------------------------------------------------------------|



-----------------------------------------|
--10r---------------10-9-10--------------|
-----------------------------------------|
-----------------------------------------|
-----------------------------------------|
-----------------------------------------|



--------8----10----10r-------10--8--12------------|
--10----------------------------------------------|
--------------------------------------------------|
--------------------------------------------------|
--------------------------------------------------|
--------------------------------------------------|



--12----17----19----20----19r-------19--17--20--------|
------------------------------------------------------|
------------------------------------------------------|
------------------------------------------------------|
------------------------------------------------------|
------------------------------------------------------|



--20-19-17-19-20-19-17-19-20-19-17-19-17-15-17-15-13-13-15-17-15-13-15
----------------------------------------------------------------------
----------------------------------------------------------------------
----------------------------------------------------------------------
----------------------------------------------------------------------
----------------------------------------------------------------------



--13-12-10------------------------------------------------------------
-----------13-12-10-12-13-12-10---------------------------------------
--------------------------------12-10-9-10-12-14-12-10----------------
-------------------------------------------------------14-12-10-12-14-
----------------------------------------------------------------------
----------------------------------------------------------------------



-------------------------------------------------------|
-------------------------------------------------------|
-------------------------------------------------------|
--------10-9-7-----------------------------------------|
---------------10-8-7-8-7-5----------------------------|
--13-12---------------------8-7-5-5b-------5------5----|



------------------------------------------------------------------|
------------------------------------------------------------------|
------------------------------------------------5---5-7-5-7-9-7-9-|
------------------------------5---5-7-5-7-9-7-9---9---------------|
------------5---5-7-5-7-8-7-8---8---------------------------------|
--5-7-8-7-8---8---------------------------------------------------|



----------------------7----7-8-7-8-10-8-10-12-10-12-13-12-13-15-13-15-
--6---6-8-6-8-10-8-10---10--------------------------------------------
----9-----------------------------------------------------------------
----------------------------------------------------------------------
----------------------------------------------------------------------
----------------------------------------------------------------------



--15b---------------17~---------------|
--------------------------------------|
--------------------------------------|
--------------------------------------|
--------------------------------------|
--------------------------------------|



--15b---------------17~---------------|
--------------------------------------|
--------------------------------------|
--------------------------------------|
--------------------------------------|
--------------------------------------|



--15b-------------------------------|
------------------------------------|
------------------------------------|
------------------------------------|
------------------------------------|
------------------------------------|



--16--------------------------------|
------------------------------------|
------------------------------------|
------------------------------------|
------------------------------------|
------------------------------------|



--20-17-19-20-19-17-20-17-19-20-19-17-20-17-19-20-19-17-20-17-19-20-19
----------------------------------------------------------------------
----------------------------------------------------------------------
----------------------------------------------------------------------
----------------------------------------------------------------------
----------------------------------------------------------------------



----------------------------------------------------------------------
--18-15-17-18-17-15-18-15-17-18-17-15-18-15-17-18-17-15-18-15-17-18-17
----------------------------------------------------------------------
----------------------------------------------------------------------
----------------------------------------------------------------------
----------------------------------------------------------------------



--19-15-17-19-17-15-19-15-17-19-17-15-19-15-17-19-17-15-19-15-17-19-17
----------------------------------------------------------------------
----------------------------------------------------------------------
----------------------------------------------------------------------
----------------------------------------------------------------------
----------------------------------------------------------------------



----------------------------------------------------------------------
--17-13-15-17-15-13-17-13-15-17-15-13-17-13-15-17-15-13-17-13-15-17-15
----------------------------------------------------------------------
----------------------------------------------------------------------
----------------------------------------------------------------------
----------------------------------------------------------------------



--17-13-15-17-15-13-17-13-15-17-15-13-17-13-15-17-15-13-17-13-15-17-15
----------------------------------------------------------------------
----------------------------------------------------------------------
----------------------------------------------------------------------
----------------------------------------------------------------------
----------------------------------------------------------------------



----------------------------------------------------------------------
--15-12-13-15-13-12-15-12-13-15-13-12-15-12-13-15-13-12-15-12-13-15-13
----------------------------------------------------------------------
----------------------------------------------------------------------
----------------------------------------------------------------------
----------------------------------------------------------------------



--17-12----------12-17-12----------12-17-12----------12-17-12---------
--------13----13----------13----13----------13----13----------13----13
-----------14----------------14----------------14----------------14---
----------------------------------------------------------------------
----------------------------------------------------------------------
----------------------------------------------------------------------



--20----------------19----17----16h17p16h17p16h17p16h17p16h17p16h17p16
--18----------------15----13----12-13-12-13-12-13-12-13-12-13-12-13-12
----------------------------------------------------------------------
----------------------------------------------------------------------
----------------------------------------------------------------------
----------------------------------------------------------------------



--16----------------17--------------------------------------|
--12----------------13--------17--------18--------15--------|
------------------------------14--------16--------13--------|
------------------------------------------------------------|
------------------------------------------------------------|
------------------------------------------------------------|



--------------------------------------------------------------|
--17--------13--------15--------12--------13--------10--------|
--14--------9---------10--------7---------9---------5---------|
--------------------------------------------------------------|
--------------------------------------------------------------|
--------------------------------------------------------------|



-------------------------------------------------------|
--12--------9----------------10------------------------|
--7---------4----------------5-------------------------|
-------------------------------------------------------|
-------------------------------------------------------|
-------------------------------------------------------|


ESPERO QUE LES GUSTE

SALUDOS A GER QUE SE QUE EL TEMA LE ENCANTA


Video Clip de Preludio Obsesivo


ACORDES PARA GUITARRA

PIANO UKELELE


TOP 20: Las más tocadas de Rata Blanca


Toca una Canción al Azar de Rata Blanca

Acordes

Cerrar

07.12

x

70