Ele (Acordes)

Resgate

Subida por carloschavez123

Compartir


Imprimir FAQ
+A
-A

Texto

Desplazamiento

Transportador

Color de Fondo

Archivos

-A
+A
Intro:
E|-----------3----|-----------------------0-
B|----0---3--3--3-|-----3------3------3---3-|
G|0~2---0---------|---0------0------0-----2-| (3x)
D|----------------|-----------------------0-|
A|----------------|-3------2-----0----------|
E|----------------|-------------------------|
  
E|---------3----3--3---3--
B|----0----3----1--1---3--|
G|0~2---0--0----0--0---0--
D|---------0----0--0---0--|
A|---------2-----------2--|
E|---------3-----------3--|
           G   G4 G4   G
 
          C    G     Am      D       Em   Em/D# D/F#  G
O que primeiro nasce antes de todos
          C    G   Am       D
O que primeiro foi antes de tudo
Em    C
Era e é
  Am     D    G   G4 G4 G
E há de vir eterno

          C    G     Am      D       Em   Em/D# D/F#  G
O que primeiro vive a vida do cosmo
          C    G   Am       D
O que primeiro morre antes do mundo
Em    C
Era e é
      Am      D     G     G   D/F#   Em
Porque há de vir espero

          C        B       Em
E tudo o que se criou foi nele
    A7    D    D   Eb/Bb   Em
Por sua voz
        C          B      Em
E tudo que se escreveu é ele
    D       G    G   D/F#   Em
E vimos a luz
        C          B       Em
E tudo que a gente ver é dele
     A7     D    D   Eb/Bb   Em
Incluindo a nós
          C        B       Em
E tudo aqui se sustenta nele
   D     G
Na sua cruz

E|---8-7--------------3--
B|-------8------------3--|
G|---------7-5-4-2-0--0--
D|--------------------0--|
A|--------------------2--|
E|--------------------3--|
                      G

G|  D/F#   Em
      D/F#      G        Am      Em
A ele todas as línguas declarem fé!
      C        D              Em
A ele todo joelho se dobre!
        D/F#    G          Am        Em
Unidos ricos e nobres lhe beijem os pés!
           C        D               Em
Na terra todas as fontes se curvem!
      D/F#      G        Am        Em
A ele anjos festejem e encantem os céus!
       C         D                 Em
A ele pobres levantem suas taças!
         D/F#    G       Am        Em
E nele as filosofias descansem em paz!
           C          D
Senhores deixem seus feudos e cantem!
                                       
E|-----------3----|-----------------------0-
B|----0---3--3--3-|-----3------3------3---3-|
G|0~2---0---------|---0------0------0-----2-| (2x)
D|----------------|-----------------------0-|
A|----------------|-3------2-----0----------|
E|----------------|-------------------------|
                                                (TERMINA)  G
                                       e cantem!

Video Clip de Ele


ACORDES PARA GUITARRA

PIANO UKELELE
G
G4
C
Am
D
Em
Em/D#
D/F#
B
A7
Eb/Bb


TOP 20: Las más tocadas de Resgate


Toca una Canción al Azar de Resgate

Acordes

Cerrar
G
G4
C
Am
D
Em
Em/D#
D/F#
B
A7
Eb/Bb

21.00

x

116