Rastone (Acordes)

Resistencia Suburbana

Subida por sebindio

Compartir


Cambiar Cifrado
Americano Latino

Cambiar Tonalidad
-1 +1
Imprimir FAQ
+A
-A

Texto

Desplazamiento

Transportador

Color de Fondo

Archivos

TONALIDAD, TAMAÑO, CIFRADO, SCROL.

Nos renovamos: Ahora puedes cambiar TODO haciendo clic en ICONO de la Guitarra () que aparece en la parte inferior de esta página.


LETRA CON ACORDES

Intro:Gm-F

|-----8/10-10-10--8-8-6-8-6-8-8h6----8/10-10-10-8-8-6-6---|
|--8-8----------------------------8-8-------------------8-|
|---------------------------------------------------------|
|---------------------------------------------------------|
|---------------------------------------------------------|
|---------------------------------------------------------|

Gm                      F
No se como explicar mi situacion
Soy 50% rasta 50% stone
me gusta mucho el reggae, me gusta el rock and rool
me gusta la maruihuana, me gusta el alcohol

Lei algo de la biblia creo muchos en Dios
y me gusta la calle y busco satisfaccion
mi familia musical es una gran fusion
hijo de mama reggea y hijo de papa rock

Riff 1
|------------------------------|
|------------------------------|
|------------------------------|
|--5-5-5------8-----5-5--------|
|--5-5-5------8-----5-5--------|
|--3-3-3-3--5-6-6-5-3-3--3-5-1-|

Gm                     F
Una vida espiritual voy tratando de encontrar
y mientras la estoy buscando me tomo algo en el Bar
aprendi del rastafari a luchar contra el opresor
y soy tan callejero como un rolling stone

Cm                       F
La gente no comprende no entiende como soy
Cm                       F
imaginate a Mick Jagger cruzado con Peter Tosh
Gm                       F
mi familia musical es una gran fusion
hijo de mama reggae hijo de papa rock

Riff 1

Solo organo:Am-G

Gm                     F
Solo te estoy contando no te pido perdon
no estoy orgulloso pero asi es como soy
yo no estoy en el cuadro yo no soy el pintor
la vida es un  teatro y yo no soy actor

Cm                        F
No tengo careta yo profeta no soy
yo soy callejero igual que vos
Gm                        F
mi familia musical es una gran fusion
hijo de mama reggae hijo de papa rock

Dios los ama, jah vive
Chau


Video Clip de Rastone


ACORDES PARA GUITARRA

PIANO UKELELE
Gm
F
Cm


TOP 20: Las más tocadas de Resistencia Suburbana


Acordes

Cerrar
Gm
F
Cm

08.25


68