Si me dejas (Acordes)

Resistencia Suburbana

Subida por abdias24

Compartir


Cambiar Cifrado
Americano Latino

Cambiar Tonalidad
-1 +1
Imprimir FAQ
+A
-A

Texto

Desplazamiento

Transportador

Color de Fondo

Archivos

TONALIDAD, TAMAÑO, CIFRADO, SCROL.

Nos renovamos: Ahora puedes cambiar TODO haciendo clic en ICONO de la Guitarra () que aparece en la parte inferior de esta página.


LETRA CON ACORDES

INTRO

G--------------------------------------------
D--55---55---55-3----------------------------
A-----------------5--33333---55555-----------
E--------------------------------------------

VERSO

G----------------3---------------------------5-------------
D----3-5---3-5-----5-3-----------3-5---3-5-----7-5-3-------
A--5-----5-------------5-------5-----5---------------------
E----------------------------------------------------------

PARTE INSTRUMENTAL

G--6------6-------5----------
D----8-5----5-8-----7-5-8----  x4
A----------------------------
E----------------------------


G----------------------------/-------------------------
D---------------------------/-------------------------- x2
A-5H-10-1010101010--88-10-/-5H-10-1010101010--8-10-----
E-----------------10------/-----------------10---------

G---------------------------------
D----3-5---3-5----------3-5-------  x2
A--5-----5------------5-----------
E---------------------------------

  (ENGANCHE)

G------------
D------------
A------------
E-15Hasta-1----

VERSO

G----------------3---------------------------5-------------
D----3-5---3-5-----5-3-----------3-5---3-5-----7-5-3-------
A--5-----5-------------5-------5-----5---------------------
E----------------------------------------------------------

FINAL

G-----------
D--3-5------
A-----------
E-----------


                  H= hasta


Video Clip de Si me dejas


ACORDES PARA GUITARRA

PIANO UKELELE


TOP 20: Las más tocadas de Resistencia Suburbana


Acordes

Cerrar

13.23


59