Compartir


Cambiar Cifrado
Americano Latino

Cambiar Tonalidad
-1 +1
Imprimir FAQ
+A
-A

Texto

Desplazamiento

Transportador

Color de Fondo

Archivos

TONALIDAD, TAMAÑO, CIFRADO, SCROL.

Nos renovamos: Ahora puedes cambiar TODO haciendo clic en ICONO de la Guitarra () que aparece en la parte inferior de esta página.


LETRA CON ACORDES



Bm                Bm              D                       Bm
What a fool I was. What a thin disguise.
E           G               C          Bm
Brando mumble,           Mingus eyes

Was a time she fell, but then she got wise
Brando mumble, Mingus eyes


(Barre chord the next ones, D B G and Fm, then back to barring Bm)

D                       B                       D                       B
I never had the squint of James Dean, or the Stanislavsky tears
D                       B                       G                       Fm
Or the rebel hunch that kills, or the smile that slowly disappears

What a fool I was. What a thin disguise.
Brando mumble, Mingus eyes
Brando mumble, Mingus eyes

Just a Simple Part he plays between Bm and E, sorry bout the timing as i just did it on word.

E----------------------------------|
B----------------------------------|
G------------2-----------2--   (*2-| Then below, then chorus.
D---------2------4---4-------------|
A---2--5---------------------------|
E----------------------------------|

E----------------------------------------------------------------------------------|
B--------------------3---------------3---------------------------------------------|
G---4-2---4-2-----------------2---------------2----4-4-2-4-1-2---------------------|   then E
D------------------------2-4-----------2-4-----------------------4-----   "Brando--|
A----------------------------------------------------------------------------------|
E----------------------------------------------------------------------------------|

The harder improv bits I didn't do as it runs on the same kind of pattern.
I haven't been able to find a tab of this song and I decided to try myself and I hope this helps.

Any corrections please send to *

Video Clip de Mingus Eyes


ACORDES PARA GUITARRA

PIANO UKELELE


TOP 20: Las más tocadas de Richard Thompson


Acordes

Cerrar

05.25

x

184