Mil Vezes Cantarei (Acordes)

Rick e Renner

Subida por Anto1


Imprimir FAQ
+A
-A

Texto

Desplazamiento

Transportador

Color de Fondo

Herramientas

TAMAÑO
TONALIDAD
+A
subir tono+ (F4)
-A
bajar tono- (F2)
    
e|---------------------------------------------------------------------------
B|---------------------------------------------------------------------------
G|---5---4-5-7/9-7-----------------------------------------------------------
D|-----7-----------9---5---5-7--5-7--5^7-5-----------------------------------
A|-----------------------8-----------------8-7-5-3-5-------------------------
E|---------------------------------------------------------------------------

e|------------------------------------------------------------------
B|-----------5------------------------------------------------------
G|---5---4-5----12-9----2-4-5--4-5----------------------2--7-5-4----
D|-----7------------9---3-5-7--5-7---5^7-5--------------3--9-5-5----
A|------------------------------------------8-7--5-3-5--------------
E|------------------------------------------------------------------



C9                         Em
Toda vez que eu penso em você
        F                       C9
Doi lembrar tanto amor que eu te dei
    F                   C9
TEU amor que um dia foi meu
             G  G4
Hoje eu não sei

          C9                Em
Quando o dia amanhece eu sinto
      F                    C9
Que você ainda está nessa cama
     F                    C9
E em minha emoção se derrama
           F/G G
Choro por ti

Am                    Em
Se não fosse por esta canção
    F                C9
Já teria morrido de amor
        F                 C/E
Mas eu tenho a estranha ilusão
         F                G F/G
Que me escute e volte pra mim

                      C9
Mais de mil vezes cantarei
           G/B         Am
Porque não morre a ilusão
          Am/G        Dm
E onde quer que você vá
C/E                  F/G
Me escutará seu coração

                      C9
Mais de mil vezes cantarei
            G/B         Am
Porque não morre está paixão
      Am/G         Dm    
E eu estou seguro que
C/E            F/G           C9
Me escutará seu coração, oh, oh

Se não fosse...

         G/B         Am
Que não morra nosso amor
         Dm    C/E
Que não morra
       F/G
Por favor
             C9  G/B Am F C9
Não o nosso amor

(Esta faltando um solo no meio da música)

HERRAMIENTAS ACORDESWEB:


LETRA DE LA CANCIÓN:

Ver la letra sola (sin acordes)

OTRAS VERSIONES DE LA MISMA CANCIÓN:

Ver. 2 Ver. 3 Ver. 4 Ver. 5 Ver. 6

DESCARGAR PDF / IMPRIMIR CANCIÓN



ACORDES PARA

c9
C9
em
Em
f
F
g
G
g4
G4
fg
F/G
am
Am
ce
C/E
gb
G/B
amg
Am/G
dm
Dm


TOP 20: Las más tocadas de Rick e Renner